Sound will begin in 5 seconds

Say It

Chords
01234567891011121314151617181920212223
E
B
G
D
A
E
B
0 1 2 3 4 5 6 7 8 9 10 11 12 13 14 15 16 17 18 19 20 21 22 23
Song Science #1: How Pros Use 6 Chords to Write Hit Songs
(/) Slide Up  (\) Slide Down  (h) Hammer On  (p) Pull Off  (b) Bend (r) Release (v) Vibrato

Stave 1:

E|--------------------------------------------------------------------------|--|--2--------2--------2-----
B|-----------------------------------------------2-----------4--------------|--|-----3--------3--------3--
G|--3--------------------------------------------3-----------4-----------3--|--|--------4--------4--------
D|--4-----------3-----------4--------------------4-----------6-----------4--|--|--------------------------
A|--6-----------4-----------6--------------------------------------------6--|--|--------------------------
E|--------------6-----------7-----------------------------------------------|--|--------------------------

Stave 2:

E|-----2--------1--------1--------1--------1--------2--------2--------2--------2--------1--------1--------
B|--------3--------3--------3--------3-----------------4--------4--------4--------4--------2--------2-----
G|--4--------4--------3--------3--------3-----------------3--------3--------3--------3--------1--------1--
D|--------------------------------------------------------------------------------------------------------
A|--------------------------------------------------------------------------------------------------------
E|--------------------------------------------------------------------------------------------------------

Stave 3:

E|--2--------2--------2--------2--------2--------2--------1--------1--------1--------1--------2--------2--
B|-----2-----------------4--------4--------4--------4--------3--------3--------3-----------------4--------
G|--------3-----------------4--------4--------4--------4--------3--------3--------3-----------------3-----
D|--------------------------------------------------------------------------------------------------------
A|--------------------------------------------------------------------------------------------------------
E|--------------------------------------------------------------------------------------------------------

Stave 4:

E|--------2--------2-----6-----------4-----------------2--------------2--------------------6-----7--------
B|--4--------4-----------7-----------6-----------------4-----2--------4--------------------7-----8--------
G|-----3--------3--------6-----------5-----------------3-----3--------3--------------------6-----8--------
D|-----------------------------------------------------1-----3--------4--------------------------6--------
A|-----------------------------------------------------------1--------2--------------------4--------------
E|--------------------------------------------------------------------------------------------------------

Stave 5:

E|-----6--------------------|--|--
B|-----7--------------------|--|--
G|-----8--------------------|--|--
D|--------------------------|--|--
A|-----6--------------------|--|--
E|--------------------------|--|--

http://www.guitartabcreator.com
Guitar Tab Creator is intended to store guitar tab created through the tool. It currently does not support in-line text editing. Any text you place in here will be lost. If you need to comment on your tab, please use the "Tab Notes" section located below.