Sound will begin in 5 seconds

Human

Chords
01234567891011121314151617181920212223
E
B
G
D
A
E
B
0 1 2 3 4 5 6 7 8 9 10 11 12 13 14 15 16 17 18 19 20 21 22 23
Song Science #1: How Pros Use 6 Chords to Write Hit Songs
(/) Slide Up  (\) Slide Down  (h) Hammer On  (p) Pull Off  (b) Bend (r) Release (v) Vibrato

Stave 1:

E|-----------0--------------0--------------------------------0----------------------------------------------
B|-----3--------3-----------------------3-----------3--3--------3--------0-----------------------3/7--7-----
G|--2--2-----------------2-----------2-----------2--------------------------2--------2--2-----2-------------
D|-----4--4-----------4-----------0-----------0-----------0-----------0-----------0----------------------7--
A|----------------------------------------------------------------------------------------------------0-----
D|-----0-----------0-----------4-----------4-----------5-----------5-----------0-----------0----------------

Stave 2:

E|--------------------------------------------------0----------------------------------------5--------------
B|--5-----------5--5-----------3-----------3--3--------3--------0--2/5-----------5-----------------------0--
G|-----7--------------------2-----------2--------------------2----------------2-----------2-----------2-----
D|-----------7-----------4-----------4-----------4-------------------------4-----------4-----------2--------
A|--------0-----------2-----------0-------------------------------------0-----------0-----------4-----------
D|--------------------------------------------5-----------5-------------------------------------------------

Stave 3:

E|--5-----5--5--------5--0-----------2--------------------0-----------------------------2-----0--------------
B|--3-----3--3-----------------------------------3--3--------3--------0--3-----------3-----------3-----------
G|-----2-----2-----2--------------2-----------2--------------------2--------------0-----------------------0--
D|-----------------------------0-----------0-----------0-----------------------4-----------4-----------4-----
A|--------------------------------------------------------------------------2-----------2--------------------
D|--0-----------0-----------4-----------4-----------5-----------5-----------------------------------5--------

Stave 4:

E|-----2-----0-----------------------------------------------------------------2-----0-----------------------
B|--3-----------3-----------3-----------3-----------2-----------2-----------2-----------3-----------3--------
G|-----------------------0-----------0-----------2-----------2-----------0-----------------------2-----------
D|--------4-----------4-----------4-----------2-----------2-----------2-----------------------0-----------0--
A|-----------------------------------------0-----------0-----------0-----------------------------------------
D|-----5-----------5-----------5-----------------------------------------------------------0-----------0-----

Stave 5:

E|-----0--0--2-----2-----------------------7--7--5-----5----------------------------2-----5--5--------5--5--
B|--3--------------------------0--------------------8--------7--7--------------2h3--------------------3-----
G|--------------------------2-----------0-----------------------------------2-------------------------------
D|--------------0--------0-----------0-----------------------------------2-------------2-----------4--------
A|--------------------------------------------------------------------0-------------0-----------2-----------
D|--------4-----------4-----------5-----------5-----------0-------------------------------------------------

Stave 6:

E|--------2--------------3--3--------0-----------0-----------0-----------2-----3--5/7-----------5-----------
B|--------3-----------------------7-----------------------------3-----0--------0----------------------------
G|--------------------0-----------------------6-----------6-----4--------------4-------------7-----------7--
D|-----4-----------0-----------0-----------5-----------5--------5--5-----------5----------------------------
A|--2--------0--------------------------0-----------0-----------0-----------0-------------5-----------5-----
D|--------------5-----------5----------------------------------------------------------0-----------0--------

Stave 7:

E|--2-----------2--------3\2--0--------------------------------------2h3-----2--0--------------------------
B|--------------3-------------------------3-----------3-----------3-------------------------0-----------0--
G|-----------0-------------------------4-----------4-----------4-------------------------0-----------0-----
D|--------0-----------0-------------4-----------4-----------4-------------4-----------4-----------4--------
A|-------------------------------2-----------2-----------2-----------2-------------------------------------
D|-----4-----------4---------------------------------------------------------------2-----------2-----------

Stave 8:

E|--------------2h3-----2--0-----------0--------------------------------------------------------------0-----
B|-----------0-------------------------------------3-----------3-----------3--------------------3--------3--
G|--------0-------------------------0-----------0-----------2-----------2------------------0h2--------------
D|-----4-------------0-----------0-----------0-----------0-----------0------------------0----------0--------
A|-------------------------------------------------------------------------------0h2h4----------------------
D|--2-----------2-------------5-----------5-----------0-----------0-----------0-----------------0-----------

Stave 9:

E|-----------0--
B|--------3-----
G|-----2--------
D|--------------
A|--------------
D|--0-----------

http://www.guitartabcreator.com
Guitar Tab Creator is intended to store guitar tab created through the tool. It currently does not support in-line text editing. Any text you place in here will be lost. If you need to comment on your tab, please use the "Tab Notes" section located below.