Sound will begin in 5 seconds

12 Bar Blues

Chords
01234567891011121314151617181920212223
E
B
G
D
A
E
B
0 1 2 3 4 5 6 7 8 9 10 11 12 13 14 15 16 17 18 19 20 21 22 23
Song Science #1: How Pros Use 6 Chords to Write Hit Songs
(/) Slide Up  (\) Slide Down  (h) Hammer On  (p) Pull Off  (b) Bend (r) Release (v) Vibrato

Stave 1:

E|-----------------------------------------------------|--
B|-----8--10h8-----8-----------------------------------|--
G|--9-----------9--------7p5-----7--5h6----------------|--
D|----------------------------7----------7--5-----5h7--|--
A|---------------------------------------------7-------|--
E|-----------------------------------------------------|--

Stave 2:

E|----------------------|----------------------5--7--5--8p7p5--7--5-----5-------5------------------------
B|----------------------|--------------5--7/8------------------------8-----6/7-----7---------------------
G|--7--5h6--------------|--------5--7-------------------------------------------------7p5-----5h7-----5--
D|--7--5----7-----------|-----7------------------------------------------------------------7-------------
A|----------------------|--------------------------------------------------------------------------------
E|----------------------|--------------------------------------------------------------------------------

Stave 3:

E|----------------|-------------------------8h9--|-----12--10--12--12p10--12p10--12-----10-----10--8--10--
B|----------------|--------8--10--8--10----------|--------------------------------------------------------
G|-----5h6--------|-----9------------------------|--------------------------------------------------------
D|--7-------------|------------------------------|--------------------------------------------------------
A|----------------|------------------------------|--------------------------------------------------------
E|----------------|------------------------------|--------------------------------------------------------

Stave 4:

E|--8------10------8--10--10--8--10p8------8h9-----------------------------------------------------5--7--
B|-----10------10----------------------10-------10--8--10--8-----8-------------------------5--7h8--------
G|------------------------------------------------------------9-----7--5--7--5-----5--7h8----------------
D|------------------------------------------------------------------------------7------------------------
A|-------------------------------------------------------------------------------------------------------
E|-------------------------------------------------------------------------------------------------------

Stave 5:

E|--8--10--8--10--10p8------8h9--
B|----------------------10-------
G|-------------------------------
D|-------------------------------
A|-------------------------------
E|-------------------------------

http://www.guitartabcreator.com
Guitar Tab Creator is intended to store guitar tab created through the tool. It currently does not support in-line text editing. Any text you place in here will be lost. If you need to comment on your tab, please use the "Tab Notes" section located below.