Sound will begin in 5 seconds

Citadel Lead Guitar

01234567891011121314151617181920212223
E
B
G
D
A
E
B
0 1 2 3 4 5 6 7 8 9 10 11 12 13 14 15 16 17 18 19 20 21 22 23
Top Courses in Music 160x600
(/) Slide Up  (\) Slide Down  (h) Hammer On  (p) Pull Off  (b) Bend (r) Release (v) Vibrato

Stave 1:

Eb|--------------------------------
Bb|--------------------------------
Gb|--------------------------------
Db|--7--8--5--3--5--7--8--5--3--2--
Ab|--------------------------------
Db|--------------------------------

Stave 2:

Eb|-------------------------------------------------------------
Bb|--10------8--------------------------------------------------
Gb|------10-----10--9--10--9--10--12--10--9------9--------------
Db|------------------------------------------12-----12--11--12--
Ab|-------------------------------------------------------------
Db|-------------------------------------------------------------

Stave 3:

Eb|--------------------------------------------------------------
Bb|--10------8---------------------------------------------------
Gb|------10-----10--9--10--9------9------------------------------
Db|---------------------------12-----12--11--12--11------11------
Ab|--------------------------------------------------12------12--
Db|--------------------------------------------------------------

Stave 4:

Eb|-----------------------------------------------------------------------------------------------------------------------------------
Bb|-----------------------------------------------------------------------------------------------------------------------------------
Gb|--7--7--9--10--9--7/14--12--10--10--10h12\9--6--6--7--9--7--6--7/12--10--9--9--9h10p7--7h9p6--7--7--9--10--9--7/14--12--10/15--14--
Db|-----------------------------------------------------------------------------------------------------------------------------------
Ab|-----------------------------------------------------------------------------------------------------------------------------------
Db|-----------------------------------------------------------------------------------------------------------------------------------

Stave 5:

Eb|-----
Bb|-----
Gb|-----
Db|-----
Ab|-----
Db|-----

http://www.guitartabcreator.com
Guitar Tab Creator is intended to store guitar tab created through the tool. It currently does not support in-line text editing. Any text you place in here will be lost. If you need to comment on your tab, please use the "Tab Notes" section located below.