Sound will begin in 5 seconds

new song

Chords
01234567891011121314151617181920212223
E
B
G
D
A
E
B
0 1 2 3 4 5 6 7 8 9 10 11 12 13 14 15 16 17 18 19 20 21 22 23
Song Science #1: How Pros Use 6 Chords to Write Hit Songs
(/) Slide Up  (\) Slide Down  (h) Hammer On  (p) Pull Off  (b) Bend (r) Release (v) Vibrato

Stave 1:

D |--------------
Ab|--------------
F |--9--9--9--9--
C |--9--9--9--9--
G |--7--0--------
D |--------9--7--

Stave 2:

D |--------------------------------------------------------------------------------------
Ab|--12--9--10--9---------12--9--10--9---------12--9--10--9-------------9----------------
F |----------------11--9----------------11--9----------------11--9--11-----11--9---------
C |-------------------------------------------------------------------------------9--11--
G |--------------------------------------------------------------------------------------
D |--------------------------------------------------------------------------------------

Stave 3:

D |-----------------------
Ab|-----------------------
F |--9--9--9--9--9--9--9--
C |--9--9--9--9--9--9--9--
G |--7--------7--7-----0--
D |-----7--9--------7-----

Stave 4:

D |----------------------------------------------------------------------------------------------------
Ab|--12--12b14--12--9--9--10--9--9--10--9----------------9--10--9--------------------------------------
F |----------------------------------------11--9--11--9------------11--9--11--9------------------------
C |------------------------------------------------------------------------------11--9-----------------
G |----------------------------------------------------------------------------------------------------
D |----------------------------------------------------------------------------------------------------

http://www.guitartabcreator.com
Guitar Tab Creator is intended to store guitar tab created through the tool. It currently does not support in-line text editing. Any text you place in here will be lost. If you need to comment on your tab, please use the "Tab Notes" section located below.