Sound will begin in 5 seconds

Omega

Chords
01234567891011121314151617181920212223
E
B
G
D
A
E
B
0 1 2 3 4 5 6 7 8 9 10 11 12 13 14 15 16 17 18 19 20 21 22 23
Song Science #1: How Pros Use 6 Chords to Write Hit Songs
(/) Slide Up  (\) Slide Down  (h) Hammer On  (p) Pull Off  (b) Bend (r) Release (v) Vibrato

Stave 1:

E|--------------------------------|--
B|--------------------------------|--
G|--------------------------------|--
D|--------10--------10--------10--|--
A|-----8---------8---------8------|--
D|--0---------8---------7---------|--

Stave 2:

E|------------------------------------------------
B|------------------------------------------------
G|------------------------------------------------
D|--10--10--x--x--10--10--10--10--10--10--10--10--
A|--7---8---x--x--7---8---8---8---8---8---8---8---
D|----------x--x----------------------8---8---8---

Stave 3:

E|--------------------------------|------------------------------------
B|--------------------------------|------------------------------------
G|--------------------------------|------------------------------------
D|--0--0--0--0--0--0--8--8--8--8--|--0--0--0--0--0--0--10--10--10--10--
A|--0--0--0--0--0--0--8--8--8--8--|--0--0--0--0--0--0--10--10--10--10--
D|--0--0--0--0--0--0--8--8--8--8--|--0--0--0--0--0--0--10--10--10--10--

Stave 4:

E|--------------------------|-----------------------------|--
B|--------------------------|-----------------------------|--
G|--------------------------|-----------------------------|--
D|--5--5--5--5--3--8--8--8--|--5--5--5--5--3--10--10--10--|--
A|--5--5--5--5--3--8--8--8--|--5--5--5--5--3--10--10--10--|--
D|--5--5--5--5--3--8--8--8--|--5--5--5--5--3--10--10--10--|--

Stave 5:

E|--------------------------
B|--------------------------
G|--------------------------
D|-----0-----0--8--5--7--3--
A|-----0-----0--8--5--7--3--
D|-----0-----0--8--5--7--3--

Stave 6:

E|---------------------------|---------------------------------
B|---------------------------|---------------------------------
G|---------------------------|---------------------------------
D|--0--0--8--10--7--7--7--8--|--0--0--8--10--7--7--3--3--3--3--
A|--0--0--8--10--7-----7-----|--0--0--8--10--7--7--3--3--3--3--
D|--0--0--8--10--7--7--7--8--|--0--0--8--10--7--7--3--3--3--3--

http://www.guitartabcreator.com
Guitar Tab Creator is intended to store guitar tab created through the tool. It currently does not support in-line text editing. Any text you place in here will be lost. If you need to comment on your tab, please use the "Tab Notes" section located below.