Sound will begin in 5 seconds

at the mouth of the cave

Chords
01234567891011121314151617181920212223
E
B
G
D
A
E
B
0 1 2 3 4 5 6 7 8 9 10 11 12 13 14 15 16 17 18 19 20 21 22 23
Song Science #1: How Pros Use 6 Chords to Write Hit Songs
(/) Slide Up  (\) Slide Down  (h) Hammer On  (p) Pull Off  (b) Bend (r) Release (v) Vibrato

Capo Fret 4

Stave 1:

E|----------------5--0----------------------------------------------------
B|--5---/8--8-----------3-----1--0-----------------------8-----7/5--------
G|-----0-------0-----------0--------2--4-----2--4--7--0-----0-------7--0--
D|----------------------------------------0-------------------------------
A|------------------------------------------------------------------------
E|--5-------7-----------2-----------1--3-----3-----7-----8-----8-7--7-----

Stave 2:

E|--------------------------------------
B|--------------------------5--7--8-----
G|--2-----0--2--4-----7--------------3--
D|-----0-----------0-----0--------------
A|--------------------------------------
E|--2-----------4-----7-----8-----8--3--

http://www.guitartabcreator.com
Guitar Tab Creator is intended to store guitar tab created through the tool. It currently does not support in-line text editing. Any text you place in here will be lost. If you need to comment on your tab, please use the "Tab Notes" section located below.