Sound will begin in 5 seconds

Flux Pinner

01234567891011121314151617181920212223
E
B
G
D
A
E
B
0 1 2 3 4 5 6 7 8 9 10 11 12 13 14 15 16 17 18 19 20 21 22 23
Song Science #1: How Pros Use 6 Chords to Write Hit Songs
(/) Slide Up  (\) Slide Down  (h) Hammer On  (p) Pull Off  (b) Bend (r) Release (v) Vibrato

Stave 1:

A|------------------------------------------------------------
C|------------------------------------------------------------
G|--8p7-----7-------------------------------------------------
D|-------8-----8--7--------8p7--5--7--5--4-----------5--4--2--
A|------------------------------------------------------------

Stave 2:

A|---------------------------------------------------------------------------
C|---------------------------------------------------------------------------
G|--11p10------10------------------------------------------------------------
D|---------11------11--10--------11p10--8--10--8--7--------8--7--5--7--5--4--
A|---------------------------------------------------------------------------

Stave 3:

A|------------------------------------------------------------------------------------------------
C|------------------------------------------------------------------------------------------------
G|--14p13------13---------------------------------------------------------------------------------
D|---------14------14--13-----14p13--11--13--11--10-----11--10--8--10--8--7-----8--7--5--7--5--4--
A|------------------------------------------------------------------------------------------------

http://www.guitartabcreator.com
Guitar Tab Creator is intended to store guitar tab created through the tool. It currently does not support in-line text editing. Any text you place in here will be lost. If you need to comment on your tab, please use the "Tab Notes" section located below.