Sound will begin in 5 seconds

The Last of Us - Main Theme

Chords
01234567891011121314151617181920212223
E
B
G
D
A
E
B
0 1 2 3 4 5 6 7 8 9 10 11 12 13 14 15 16 17 18 19 20 21 22 23
Top Courses in Music 160x600
(/) Slide Up  (\) Slide Down  (h) Hammer On  (p) Pull Off  (b) Bend (r) Release (v) Vibrato

Stave 1:

E|---------0---------0---------0---------0---------0---------0---------0---------0-----
B|------0---------0---------0---------0---------0---------0---------0---------0--------
G|--12--------12--------12--------12--------12--------12--------12--------12-----------
D|-------------------------------------------------------------------------------------
A|-------------------------------------------------------------------------------------
E|-------------------------------------------------------------------------------------

Stave 2:

E|---------0--------0---------0---------0---------0---------0---------0---------0-----
B|------0--------0---------0---------0---------0---------0---------0---------0--------
G|--12--------9--------14--------11--------12--------12--------12--------12-----------
D|------------------------------------------------------------------------------------
A|------------------------------------------------------------------------------------
E|------------------------------------------------------------------------------------

Stave 3:

E|---------0--------0---------0---------0------------0---------0---------0---------0--
B|------0--------0---------0---------0------------0---------0---------0---------0-----
G|--12--------9--------14--------11--------14/16--------16--------16--------16--------
D|------------------------------------------------------------------------------------
A|------------------------------------------------------------------------------------
E|------------------------------------------------------------------------------------

Stave 4:

E|---------0--------0---------0---------0---------0---------0---------0---------0--
B|------0--------0---------0---------0---------0---------0---------0---------0-----
G|--12--------9--------14--------11--------12--------12--------12--------12--------
D|---------------------------------------------------------------------------------
A|---------------------------------------------------------------------------------
E|---------------------------------------------------------------------------------

Stave 5:

E|---------0---------0---------------0--------0----------0--------0--------0--------0--
B|------0---------0---------------0--------0----------0--------0--------0--------0-----
G|--15--------14--------12h14p12--------9--------7/9--------9--------9--------9--------
D|-------------------------------------------------------------------------------------
A|-------------------------------------------------------------------------------------
E|-------------------------------------------------------------------------------------

Stave 6:

E|--------9--------9--------9--------9--
B|-----0--------0--------0--------0-----
G|--9--------9--------9--------9--------
D|--------------------------------------
A|--------------------------------------
E|--------------------------------------

Stave 7:

E|--10--------10--------10--------10--------9--------9--------9--------9--------
B|---------0---------0---------0---------0--------0--------0--------0--------0--
G|------9---------9---------9---------9--------9--------9--------9--------9-----
D|------------------------------------------------------------------------------
A|------------------------------------------0-----------------------------------
E|--0---------------------------------------------------------------------------

Stave 8:

E|--8--------8--------8--------8--------7--------7--------7--------7--------
B|--------0--------0--------0--------0--------0--------0--------0--------0--
G|-----9--------9--------9--------9--------9--------9--------9--------9-----
D|--------------------------------------------------------------------------
A|--0-----------------------------------------------------------------------
E|--------------------------------------0-----------------------------------

Stave 9:

E|--10--------10--------10--------10--------9--------9--------9--------9--------
B|---------0---------0---------0---------0--------0--------0--------0--------0--
G|------9---------9---------9---------9--------9--------9--------9--------9-----
D|------------------------------------------------------------------------------
A|------------------------------------------0-----------------------------------
E|--0---------------------------------------------------------------------------

Stave 10:

E|--8--------8--------8--------8--------7--------7--------7--------7--------
B|--------0--------0--------0--------0--------0--------0--------0--------0--
G|-----9--------9--------9--------9--------9--------9--------9--------9-----
D|--------------------------------------------------------------------------
A|--0-----------------------------------------------------------------------
E|--------------------------------------0-----------------------------------

Stave 11:

E|--5--------5--------5--------5--------5--------------
B|--------0--------0--------0--------0--0--------------
G|-----5--------5--------5--------5-----5--------------
D|-----------------------------------------------------
A|--0-----------------------------------0--------------
E|-----------------------------------------------------

http://www.guitartabcreator.com
Guitar Tab Creator is intended to store guitar tab created through the tool. It currently does not support in-line text editing. Any text you place in here will be lost. If you need to comment on your tab, please use the "Tab Notes" section located below.