Sound will begin in 5 seconds

Poderoso Dios - Marcos Witt

01234567891011121314151617181920212223
E
B
G
D
A
E
B
0 1 2 3 4 5 6 7 8 9 10 11 12 13 14 15 16 17 18 19 20 21 22 23
Song Science #1: How Pros Use 6 Chords to Write Hit Songs
(/) Slide Up  (\) Slide Down  (h) Hammer On  (p) Pull Off  (b) Bend (r) Release (v) Vibrato

Stave 1:

E|-------------------|---------------------------|----------15/17-15-15-17-------|-
B|-/13v-13-13-12-13v-|----13-15-15bb17-17p15-15v-|-13-13-12----------------16/17-|-
G|-------------------|-12------------------------|-------------------------------|-
D|-------------------|---------------------------|-------------------------------|-
A|-------------------|---------------------------|-------------------------------|-
E|-------------------|---------------------------|-------------------------------|-

Stave 2:

E|-12-12-12-----------|---------------|--------------------------|---------|-|-
B|----------15-15/17v-|-/13-12--------|--------------------------|---------|-|-
G|--------------------|-------/12-10v-|-9----9-10-10/12----------|---------|-|-
D|--------------------|---------------|---10------------12-10-9v-|-5/7-7b5-|-|-
A|--------------------|---------------|--------------------------|---------|-|-
E|--------------------|---------------|--------------------------|---------|-|-

Stave 3:

E|-----------------------|-----------------------|-15/17----------------|-------12-13-12-13-15----18----13-|-
B|-------12-12-13--------|----13-15-15b17-17-13v-|-------13-13----12-12-|----13----------------13----13----|-
G|-12-12----------12h14v-|-14--------------------|----------------------|-12-------------------------------|-
D|-----------------------|-----------------------|----------------------|----------------------------------|-
A|-----------------------|-----------------------|----------------------|----------------------------------|-
E|-----------------------|-----------------------|----------------------|----------------------------------|-

Stave 4:

E|----|-------13-15-13-15----------------------|----------------
B|-15-|-13-15-------------13-13-12-12----13/15-|-15b17r---13----
G|----|-------------------------------12-------|-------------14-
D|----|----------------------------------------|----------------
A|----|----------------------------------------|----------------
E|----|----------------------------------------|----------------

http://www.guitartabcreator.com
Guitar Tab Creator is intended to store guitar tab created through the tool. It currently does not support in-line text editing. Any text you place in here will be lost. If you need to comment on your tab, please use the "Tab Notes" section located below.