Sound will begin in 5 seconds

pretty sounds

Chords
01234567891011121314151617181920212223
E
B
G
D
A
E
B
0 1 2 3 4 5 6 7 8 9 10 11 12 13 14 15 16 17 18 19 20 21 22 23
Song Science #1: How Pros Use 6 Chords to Write Hit Songs
(/) Slide Up  (\) Slide Down  (h) Hammer On  (p) Pull Off  (b) Bend (r) Release (v) Vibrato

Stave 1:

E|--10--7--0--2--3--
B|--10--7--0--2--3--
G|--11--7--0--2--4--
D|--12--9--2--4--5--
A|--12--9--2--4--5--
E|--10--7--0--2--3--

Stave 2:

E|--10--12--14------7--
B|--10--14--15--17--7--
G|--11--14--16--18--7--
D|--12--14--16--18--9--
A|--12--12--14--16--9--
E|--10--------------7--

Stave 3:

E|--0--------------
B|--0--17--15--19--
G|--0--18--16--19--
D|--2--18--16--19--
A|--2--16--14--17--
E|--0--------------

Stave 4:

E|--14--12--10--9---
B|--15--14--12--10--
G|------------------
D|------------------
A|------------------
E|------------------

Stave 5:

E|------------------------------------------------------------------------------
B|------------------------------------------------------------------------------
G|---------------------------9-----9--7--7--------------------------------------
D|--9---------------7--------9-----9--7--7--7--------4--5--4-----5--4--4--2--2--
A|-----9--7--10--7-----7-----7-----7--5--5-----5--7-----------7-----5--5--4--4--
E|------------------------------------------------------------------------------

Stave 6:

E|-----------------------
B|-----------------------
G|-----------------------
D|--0--0--0--0-----------
A|--2--2--2--2--2--2--2--
E|-----------5--5--3--3--

http://www.guitartabcreator.com
Guitar Tab Creator is intended to store guitar tab created through the tool. It currently does not support in-line text editing. Any text you place in here will be lost. If you need to comment on your tab, please use the "Tab Notes" section located below.