Sound will begin in 5 seconds

yo

Chords
01234567891011121314151617181920212223
E
B
G
D
A
E
B
0 1 2 3 4 5 6 7 8 9 10 11 12 13 14 15 16 17 18 19 20 21 22 23
Song Science #1: How Pros Use 6 Chords to Write Hit Songs
(/) Slide Up  (\) Slide Down  (h) Hammer On  (p) Pull Off  (b) Bend (r) Release (v) Vibrato

Stave 1:

E|---------------------------------------------------------------------------------------------------------
B|---------------------------------------------------------------------------------------------------------
G|-----------------------------3--2--0-----1-----3-----5v--------------------------------------------------
D|-----------------3--2--0---------------------------------------------------------------------------------
A|-----3--2--0------------------------------------------------7v--5--3--2----------------------------------
E|--0-----------0-----------0-----------0-----0-----0----------------------5v--7v--5--3--2--0--0--0--0--0--

Stave 2:

E|-----------------------------------------------------------------------------------0--7--5--4--0--7--5--4--
B|-----------------------------------------------------------------------------------0--7--5--5--0--7--5--5--
G|----------------------------------------------------------------------2v--3--5--7--9--7--5--4--9--7--5--4--
D|-----------2v-----------3v-----------5v-----------7v-----7v--5--3--2---------------------------------------
A|-----------------------------------------------------------------------------------------------------------
E|--0--0--0------0--0--0------0--0--0------0--0--0-----------------------------------------------------------

Stave 3:

E|--0--3--2--0--0--0--2--2--
B|--0--4--2--0--0--0--3--2--
G|--9--3--2--2--1--1--2--2--
D|-----------2--2--2--0-----
A|--------------2--0--------
E|--------------0--3--------

http://www.guitartabcreator.com
Guitar Tab Creator is intended to store guitar tab created through the tool. It currently does not support in-line text editing. Any text you place in here will be lost. If you need to comment on your tab, please use the "Tab Notes" section located below.