Sound will begin in 5 seconds

Sandpaper

Chords
01234567891011121314151617181920212223
E
B
G
D
A
E
B
0 1 2 3 4 5 6 7 8 9 10 11 12 13 14 15 16 17 18 19 20 21 22 23
Top Courses in Music 160x600
(/) Slide Up  (\) Slide Down  (h) Hammer On  (p) Pull Off  (b) Bend (r) Release (v) Vibrato

Stave 1:

E|-----------------------------------------------------------------------------------------------------
B|-----------------------------------------------------------------------------------------------------
G|-----------------------------------------------------------------------------------------------------
D|-----------------------------------------------0--2--2--2--2--2--2--2--2--0--2--2--2--2--2--2--2--2--
A|--0--0--0--0--0--0--0--2--3--3--3--3--3--3--3--------------------------------------------------------
E|-----------------------------------------------------------------------------------------------------

Stave 2:

E|-----------------------------------------------------------------------------------------------------
B|-----------------------------------------------------------------------------------------------------
G|-----------------------------------------------------------------------------------------------------
D|-----------------------------------------------0--2--2--2--2--2--2--2--2--3--2--2--2--2--2--2--2--2--
A|--0--0--0--0--0--0--0--2--3--3--3--3--3--3--3--------------------------------------------------------
E|-----------------------------------------------------------------------------------------------------

Stave 3:

E|---------------
B|---------------
G|------------5--
D|--12--7--4--5--
A|--12--7--4--3--
E|--10--5--2-----

Stave 4:

E|-----------
B|-----------
G|-----------
D|--2--4--5--
A|--2--4--5--
E|--0--2--3--

http://www.guitartabcreator.com
Guitar Tab Creator is intended to store guitar tab created through the tool. It currently does not support in-line text editing. Any text you place in here will be lost. If you need to comment on your tab, please use the "Tab Notes" section located below.