Sound will begin in 5 seconds

Korey Dane - Let It Be Just For Fun

Chords
01234567891011121314151617181920212223
E
B
G
D
A
E
B
0 1 2 3 4 5 6 7 8 9 10 11 12 13 14 15 16 17 18 19 20 21 22 23
Song Science #1: How Pros Use 6 Chords to Write Hit Songs
(/) Slide Up  (\) Slide Down  (h) Hammer On  (p) Pull Off  (b) Bend (r) Release (v) Vibrato

Stave 1:

E|-----------------------------------------------------------------------
B|--------0--------------------------4--------4--4--4-----------4--4-----
G|-----------4h3------------3--6-----6--------6--6--6--6--------6--6--6--
D|--------1-------4h5h6--------5-----5-----------5--5--5--------5-----5--
A|-----2-----------------------6-----------------6-----6--------6-----6--
E|-----2-----------------------------------------------------------------

Stave 2:

E|--------------------------------------|--------------------------0--0--
B|--------4--------4--------------4-----|--2-----------2-----------2--2--
G|--5-----5--------5-----------5--5--5--|--1-----1-----1-----------1--1--
D|--4-----4--------------------4--4--4--|--2-----4-----2-----------2-----
A|--6--------------------------6-----6--|--------------------------------
E|--4--------------------------4-----4--|--------------------------------

Stave 3:

E|-----------------------------|-----------------------------|--------------------------------
B|-----0-----2-----------------|-----4-----------4--4--------|-----0-----2-----0--------0--0--
G|--1--------1-----1-----------|--4--4-----4-----4--4--4--4--|--1-----1--1-----1--------1--1--
D|--2--------2-----------2-----|--4--4-----4--------4--4--4--|--3--------3-----3--------3-----
A|--2--------2-----------------|--2--------2--------------2--|--4--------4-----4--------4-----
E|--0--------0-----------------|-----------------------------|--------------------------------

Stave 4:

E|-----2-----------------------|-----2-----
B|--0--0-----------------------|--0--0-----
G|--1--1-----4--------4--4-----|--1--1--1--
D|--2--------4--------4--4--4--|--2-----2--
A|-----------2--------2-----2--|-----------
E|--0--------------------------|--0-----0--

Stave 5:

E|--------------------------|-----------------------------------
B|--------------------------|--6-----6--6-----5-----------5--5--
G|--8-----8-----------8-----|--6-----6--6-----6-----------6--6--
D|--9-----9-----------9--9--|--6-----6--------9--------9--9-----
A|--9-----9--------9--9--9--|--8--------------7--------7--------
E|--7--------------7-----7--|--9--------------5--------5--------

http://www.guitartabcreator.com
Guitar Tab Creator is intended to store guitar tab created through the tool. It currently does not support in-line text editing. Any text you place in here will be lost. If you need to comment on your tab, please use the "Tab Notes" section located below.