Sound will begin in 5 seconds

red scalp - summoner

01234567891011121314151617181920212223
E
B
G
D
A
E
B
0 1 2 3 4 5 6 7 8 9 10 11 12 13 14 15 16 17 18 19 20 21 22 23
Top Courses in Music 160x600
(/) Slide Up  (\) Slide Down  (h) Hammer On  (p) Pull Off  (b) Bend (r) Release (v) Vibrato

Stave 1:

E|------------------------------------------------------------
B|------------------------------------------------------------
G|------------------------------------------------------------
D|------------------------------------------------------------
A|----------------------------------------3--2h3p2h3p2--1--0--
E|--0--2--3--7--5b5--5--5--5--3--0--2--3----------------------

Stave 2:

E|------------------------------------------------------------
B|------------------------------------------------------------
G|------------------------------------------------------------
D|------------------------------------------------------------
A|----------------------------------------3--2h3p2h3p2--1--0--
E|--0--2--3--7--5--5b5b5b5r5--3--0--2--3----------------------

Stave 3:

E|--------------------------------------------------------------
B|--------------------------------------------------------------
G|--------------------------------------------------------------
D|--------------------------------------------------------------
A|--------------------------------------------3--2--------------
E|--------------------------------------0--3--------0--3--7--5--

Stave 4:

E|--------------------------
B|--------------------------
G|--------------------------
D|--------------------------
A|--------3--2--------------
E|--0--3--------0--3--7--5--

Stave 5:

E|------------------------------------------
B|------------------------------------------
G|------------------------------------------
D|----------3--3h5p3--3h5p3--3h5p3----------
A|-----3h5-----------------------------3h5--
E|--0-------------------------------0-------

http://www.guitartabcreator.com
Guitar Tab Creator is intended to store guitar tab created through the tool. It currently does not support in-line text editing. Any text you place in here will be lost. If you need to comment on your tab, please use the "Tab Notes" section located below.