Sound will begin in 5 seconds

JJ Better Together Piano bit solo Uke GCEA

01234567891011121314151617181920212223
E
B
G
D
A
E
B
0 1 2 3 4 5 6 7 8 9 10 11 12 13 14 15 16 17 18 19 20 21 22 23
Song Science #1: How Pros Use 6 Chords to Write Hit Songs
(/) Slide Up  (\) Slide Down  (h) Hammer On  (p) Pull Off  (b) Bend (r) Release (v) Vibrato

Stave 1:

A|------12--15---------12--15-----|------8--12--------8--12-----|-----5--8--------3--7-----|--
E|--13-------------12-------------|--10------------9------------|--6-----------5-----------|--
A|--------------------------------|-----------------------------|--------------------------|--
G|--------------------------------|-----------------------------|--------------------------|--

Stave 2:

A|-----1--5--------7--10-----|------12--15---------12--15-----|------8--12--------8-----|--
E|--3-----------8------------|--13-------------12-------------|--10------------9--------|--
A|---------------------------|--------------------------------|-------------------------|--
G|---------------------------|--------------------------------|-------------------------|--

Stave 3:

A|-----5--8--------3--7-----|-----1--5-----3p0--|--
E|--6-----------5-----------|--3----------------|--
A|--------------------------|-----------0-------|--
G|--------------------------|-------------------|--

Stave 4:

A|-----------10-----------8----------5----------3-----|-------5----------8--------10--------8-----0--
E|--8/10---------10\8--------8\5--------5\3--------3--|--3/5-----5/8--------8/10------10\8-----8-----
A|----------------------------------------------------|----------------------------------------------
G|----------------------------------------------------|----------------------------------------------

http://www.guitartabcreator.com
Guitar Tab Creator is intended to store guitar tab created through the tool. It currently does not support in-line text editing. Any text you place in here will be lost. If you need to comment on your tab, please use the "Tab Notes" section located below.