Sound will begin in 5 seconds

Fnaf 3 - Die in a fire - The Living Tombstone

01234567891011121314151617181920212223
E
B
G
D
A
E
B
0 1 2 3 4 5 6 7 8 9 10 11 12 13 14 15 16 17 18 19 20 21 22 23
Song Science #1: How Pros Use 6 Chords to Write Hit Songs
(/) Slide Up  (\) Slide Down  (h) Hammer On  (p) Pull Off  (b) Bend (r) Release (v) Vibrato

Stave 1:

E|-9-9-6-4-2-9-9-9-4-2-6-7-6----9-9-6-4-2-9-9-9-4-2-4------2-2---2-4-6-2-2---2---4-2-
B|----------------------------------------------------4--------4-----------4---4-----
G|-----------------------------------------------------------------------------------
D|-----------------------------------------------------------------------------------
A|-----------------------------------------------------------------------------------
E|-----------------------------------------------------------------------------------

Stave 2:

E|-2-6-2-11-2-6-2-11-2-6-2-11-2----2-2---2-4-6-2-2---4-6-4-2-
B|-------------------------------------4-----------4---------
G|-----------------------------------------------------------
D|-----------------------------------------------------------
A|-----------------------------------------------------------
E|-----------------------------------------------------------

Stave 3:

E|-2-2-2-2-4-2-7-6----2-2-2-2-2-4-6----2-2-2-2-4-2-9-6----1-1-1-1-2-4-6-
B|----------------------------------------------------------------------
G|----------------------------------------------------------------------
D|----------------------------------------------------------------------
A|----------------------------------------------------------------------
E|----------------------------------------------------------------------

Stave 4:

E|-2-2-2-2-4-2-7-9----4-6-4-2-9----4-6-4-3-4-6-7-6-7-4-2-1-2-4-2-
B|---------------------------------------------------------------
G|---------------------------------------------------------------
D|---------------------------------------------------------------
A|---------------------------------------------------------------
E|---------------------------------------------------------------

Stave 5:

E|-2-4-2-4-9-4-6-4-2-9-4-6-4-3-4-6-7-6-4-2-1-2-2-4-2-4-9-6-4-2-11-9-
B|------------------------------------------------------------------
G|------------------------------------------------------------------
D|------------------------------------------------------------------
A|------------------------------------------------------------------
E|------------------------------------------------------------------

Stave 6:

E|-
B|-
G|-
D|-
A|-
E|-

Stave 7:

E|-9-6-11-
B|--------
G|--------
D|--------
A|--------
E|--------

http://www.guitartabcreator.com
Guitar Tab Creator is intended to store guitar tab created through the tool. It currently does not support in-line text editing. Any text you place in here will be lost. If you need to comment on your tab, please use the "Tab Notes" section located below.