Sound will begin in 5 seconds

I Still See You Everywhere - Guitar Solo

01234567891011121314151617181920212223
E
B
G
D
A
E
B
0 1 2 3 4 5 6 7 8 9 10 11 12 13 14 15 16 17 18 19 20 21 22 23
Song Science #1: How Pros Use 6 Chords to Write Hit Songs
(/) Slide Up  (\) Slide Down  (h) Hammer On  (p) Pull Off  (b) Bend (r) Release (v) Vibrato

Stave 1:

E|---------------------------------------------------------------10-------------------------------------------
B|--------------------------------8--10--8--10b12--8--10--10b12------10--10--8--8--7--7--8--8--5--5--3--3--0--
G|-------7--7--7--9--7/9-----7/9------------------------------------------------------------------------------
D|--7/9-------------------------------------------------------------------------------------------------------
A|------------------------------------------------------------------------------------------------------------
E|------------------------------------------------------------------------------------------------------------

Stave 2:

E|-----------------------------------------------------------------------------------------------------------
B|-----------------------------------------------------3--3--5--3--5b6--3h5----------8v-----10b12--10b12--8--
G|--4--2--2--0--2--4--4-----4b5--4--2--0----------3/4---------------------------7/9------9-------------------
D|----------------------------------------3/4----------------------------------------------------------------
A|-----------------------------------------------------------------------------------------------------------
E|-----------------------------------------------------------------------------------------------------------

Stave 3:

E|-------------------------------------------------------------------------------------------------
B|--8-----8--10--8--10b12--10--8-----8--------------------------8--10--10--7--7--8--8--3--3--5--5--
G|-----9--------------------------9----------------------------------------------------------------
D|-------------------------------------------------------------------------------------------------
A|-------------------------------------------------------------------------------------------------
E|-------------------------------------------------------------------------------------------------

Stave 4:

E|-------------------3v---------------10--------------------------
B|--------------3/5------------10b12------12b10--10--8--10/12-----
G|--4--4--2--4----------------------------------------------------
D|----------------------------------------------------------------
A|----------------------------------------------------------------
E|----------------------------------------------------------------

Stave 5:

E|--15v--14--12-----------------12------------------------------
B|---------------15--12--15b17------12v---------15--------------
G|---------------------------------------14b16------16b14--12v--
D|--------------------------------------------------------------
A|--------------------------------------------------------------
E|--------------------------------------------------------------

Stave 6:

E|----------------------------------------13--15--15b17--13------15b17--15--13--13--
B|-------------------------15------13/15---------------------15---------------------
G|--14--12--14--12--14/16------16---------------------------------------------------
D|----------------------------------------------------------------------------------
A|----------------------------------------------------------------------------------
E|----------------------------------------------------------------------------------

http://www.guitartabcreator.com
Guitar Tab Creator is intended to store guitar tab created through the tool. It currently does not support in-line text editing. Any text you place in here will be lost. If you need to comment on your tab, please use the "Tab Notes" section located below.