Sound will begin in 5 seconds

Blood & Guts

Chords
01234567891011121314151617181920212223
E
B
G
D
A
E
B
0 1 2 3 4 5 6 7 8 9 10 11 12 13 14 15 16 17 18 19 20 21 22 23
Song Science #1: How Pros Use 6 Chords to Write Hit Songs
(/) Slide Up  (\) Slide Down  (h) Hammer On  (p) Pull Off  (b) Bend (r) Release (v) Vibrato

Stave 1:

E|-----------------------------------------0----------------------------------------------------------------
B|-----------------------------------------0----------------------------------------------------------------
G|--------5-----------5--4-----------------0-------------0-----------0--------------0--------------2--------
D|-----4-----------4--------4--------------5\4--------------------4--------------4-----4-----------4--------
A|--2--------2--3--------------3-----------2----2-----2-----2--3--------------2-----------2-----3--5--------
E|-----------------------------------0-----0-------0-----------------------0-----------------0--------------

Stave 2:

E|-----------------------------------------5--7--------7-----5-----------------------------3--2--------2--
B|--------------------------------5--7--8--------------5-----------------------------------------0-----0--
G|--0--------------0--2--4--5--7-----------------------5-----------------------0--------4-----------4--4--
D|--4-----------4--------------------------------------7-----------7-----9--7--4-----3-----------------3--
A|--2--------2-----------------------------------0-----------------0-----0--0--2--------------------------
E|--0-----0--------------------------------------------------------------------0--------------------------

Stave 3:

E|---------------------------------------------------------------------------------------10--7--
B|-----------------4--5--7--8--10--8--7-----5-----7--8--10--8--7-----5--7--8--10--8--10---------
G|-----------4--6------------------------4------------------------------------------------------
D|--4--5--7-------------------------------------------------------------------------------------
A|----------------------------------------------------------------------------------------------
E|----------------------------------------------------------------------------------------------

Stave 4:

E|--5--7--8--7--8--10--8--7---------8--7--8--10--8--7---------7--
B|---------------------------10------------------------10--8-----
G|-------------------------------9-------------------------------
D|---------------------------------------------------------------
A|---------------------------------------------------------------
E|---------------------------------------------------------------

Stave 5:

E|--------------------------------------------------------------------------------------------------------
B|--------------------------------------------------------------------------------------------------------
G|-----------------------------------------------------------7--3-----------------------------------------
D|--2--4--5--7--5--4-----2--4--5--7--5--4--2--4--5--7--5--7-----------------5--4--------5--4--------5--4--
A|--------------------2--------------------------------------------------3--------3--3--------3--2--------
E|-----------------------------------------------------------------------0-----------0-----------0--------

Stave 6:

E|--------5--7--8-----7--5--7-----5---------------------------------12--11--9--8-----------------------7--
B|--------------------------------------8--7--10--8--7----------12----------------8-----8--7-----7--------
G|--------------------------------------------8---------9---12-----------------------9--------9-----8-----
D|--2-----------7--4--------5-----4-----------7-----------------------------------------------------------
A|--2--------------------------------6--------7-----------------------------------------------------------
E|--0---------------------------------------------------10----------9----------8--------7-----------------

http://www.guitartabcreator.com
Guitar Tab Creator is intended to store guitar tab created through the tool. It currently does not support in-line text editing. Any text you place in here will be lost. If you need to comment on your tab, please use the "Tab Notes" section located below.