Sound will begin in 5 seconds

Berserk 1123

Chords
01234567891011121314151617181920212223
E
B
G
D
A
E
B
0 1 2 3 4 5 6 7 8 9 10 11 12 13 14 15 16 17 18 19 20 21 22 23
Song Science #1: How Pros Use 6 Chords to Write Hit Songs
(/) Slide Up  (\) Slide Down  (h) Hammer On  (p) Pull Off  (b) Bend (r) Release (v) Vibrato

Stave 1:

E|--------------------------------------------------------------------------------------------------------
B|--------------------------------------------------------------------------------------------------------
G|--------------------------------------------------------------------------------------------------------
D|--------------------------------------------------------------------------------------------------------
A|--------------------2-----------------------------------------------5--2--0--2--3--2--3--5--3--2--0--3--
E|--0--2--3--5--3--2-----0--2--3--5--3--2--2--3--2--0--2--3--5--3--5--------------------------------------

Stave 2:

E|--------------------------------------------------------------------------------------------------------
B|--------------------------------------------------------------------------------------------------------
G|--------------------------------------------------------------------------------------------------------
D|-----------------------------5--------4--------5--------4-----------5--------4--------5--------4--------
A|--2--3--5--3--2--0--2-----2--------2--------2--------2-----------2--------2--------2--------2-----------
E|-----------------------0--------0--------0--------0-----------0--------0--------0--------0--------------

Stave 3:

E|-----------------------------------------------------------------------------------------------------
B|-----------------------------------------------------------------------------------------------------
G|-----------------------------------------------------------------------------------------------------
D|--------5--------------------------5--------------------------------5--------------------------5-----
A|-----2--------------------2-----2--------------------------------2--------------------5-----2--------
E|--0--------2--3--5--3--2-----0--------2--3--5--3--2--2--3--2--0--------2--3--5--3--5-----0-----------

Stave 4:

E|--------------------------------------------------------------------------------------------------------
B|-----------------------------------------------------------------------------------------------------0--
G|-----------------------------------------------------------------------------------------2--------------
D|--------4--------------5--------------------------5--------------------------5--------0-----------2-----
A|-----2-----0--2-----3-----2--3--5--3--2--0-----3-----2--3--5--3--2--0-----2-----------------------------
E|--0--------------0--------------------------0--------------------------0--------0--2--------2--3--------

Stave 5:

E|-----------------------------------------------0-----------------0-----------------0-----------
B|-----------0-----------1--------2-----------4-----4-----------4-----4-----------4-----4--------
G|-----------------------------------------------------0-----0-----------0-----0-----------0-----
D|--------2-----------2--------2-----------4--------------4-----------------4-----------------4--
A|-----------------0--------1--------1--2--------------------------------------------------------
E|--3--4--------4--------------------------------------------------------------------------------

Stave 6:

E|--0--------------------------------------------------------------------------------------------------
B|--0--------------------------------------------------------------------------------------------------
G|--0-----------------------------------------------------------------------------------------------7--
D|--2--4--5--7--5--4--4--5--4--------5--4--5--7--5--4--4--5--4--------5--4--5--------7--5--------7-----
A|--2-----------------------------3--------------------------------4--------------5-----------6--------
E|--0--------------------------0--------------------------------0--------------0-----------0-----------

Stave 7:

E|--------------------------------------------------------------------------------------------------------
B|--------------------------------------------------------------------------------------------------------
G|--4-----------4-----------------------5--4--5--------7--5--4--4--5--4--2--------5--4--5--------7--5--4--
D|--5--------5--------------2--4-----2--------------3--------------------------4--------------2--------4--
A|--5-----7-----------7-----------0--------------0--------------------------0--------------0-----------6--
E|--0--0-----------4--------------------------------------------------------------------------------------

Stave 8:

E|-----0--------0--------2--3--5--------3-----2-----0-----3--------3--------2--3--5-----3-----2-----2--3--
B|-----0--------0--------------0--------0-----0-----0-----0--------0--------------0-----0-----0-----0-----
G|-----4--4--4-----4--4--------5--5-----5--5--5--5--5--5--6--6--6--6--6--6--------5--5--5--5--5--5--5-----
D|--7--2--------------------------------------------------------------------------------------------------
A|-----2--------------------------------------------------------------------------------------------------
E|-----0--------------------------------------------------------------------------------------------------

Stave 9:

E|--2--0--------0--------2--3--5-----3-----5--10--7--------7--------7-----7--------7--------5--7--8--------
B|-----0--------0--------------0-----0-----0------0--------0--------0-----0--------0--------------0--------
G|-----4--4--4-----4--4--------5--5--5--5--6------9--9--9--9--9--9--9--9--8--8--8--8--8--8--------9--9--9--
D|---------------------------------------------------------------------------------------------------------
A|---------------------------------------------------------------------------------------------------------
E|---------------------------------------------------------------------------------------------------------

Stave 10:

E|--8--------7--8--10------8-------7---------------8-----------8-----------7--8--10------8-------7------------7--------7--
B|--0--------------0-------0-------0-------10------0-----------0-----------------0-------0-------0-----10-----0--------0--
G|--9--9--9--------10--10--10--10--10--10--10--10--11--11--11--11--11--11--------10--10--10--10--8--8------8--9--9--9--9--
D|------------------------------------------------------------------------------------------------------------------------
A|------------------------------------------------------------------------------------------------------------------------
E|------------------------------------------------------------------------------------------------------------------------

Stave 11:

E|--------7-----------------------------------------------------------------------------------------------
B|--------0-----------------0--------------------0--------------------0--------------------0--------------
G|--9--9--9--9-----------5-----5--------------5-----5--------------5-----5--------------5-----5-----------
D|--------------------6-----------6--------6-----------6--------5-----------5--------5-----------5--------
A|-----------------8--------------------8--------------------7--------------------7-----------------------
E|--------------0--------------------0--------------------0--------------------0--------------------------

Stave 12:

E|--------------------------------------------------------------------------------------------
B|--------------0--------------------0--------------------0--------------------0--------------
G|-----------5-----5--------------5-----5--------------5-----5--------------5-----5-----------
D|--------4-----------4--------4-----------4--------4-----------4--------4-----------4--------
A|-----6--------------------6--------------------5--------------------5-----------------------
E|--0--------------------0--------------------0--------------------0--------------------------

Stave 13:

E|--------------------------------------------------------------------------------------------------------
B|--------------0--------------------0--------------------0--------------------0--------------------0-----
G|-----------2-----2--------------2-----2--------------2-----2--------------2-----2--------------2-----2--
D|--------2-----------2--------2-----------2--------2-----------2--------2-----------2--------2-----------
A|-----4--------------------4--------------------3--------------------3--------------------3--------------
E|--0--------------------0--------------------0--------------------0--------------------0-----------------

Stave 14:

E|--------------------------------------------------------------------------------------------------------
B|-----0--------0--------0--------0--------0--------------------------------------------------------------
G|--------2--------2--------2--------2--------2--0--------------------------------------------------------
D|--2--------2--------2--------2--------2-----------4--2--0-----------------------5--4--5--7--5--4--4--5--
A|-----------------------------------------------------------3--2--0-----------2--------------------------
E|--------------------------------------------------------------------3--2--0-----------------------------

Stave 15:

E|--------------------------------------------------------------------------------------------------------
B|--------------------------------------------------------------------------------------------------------
G|--------------------------------------------------------------------------7-----------4--------------4--
D|--4--------5--4--5--7--5--4--4--5--4--------5--4--5--------7--5--------7-----------5--------------------
A|--------3--------------------------------4--------------5-----------6-----------7-----------------2-----
E|-----0--------------------------------0--------------0-----------0-----------0-----------0--2--4--------

Stave 16:

E|--------------------------------------------------------------------------------------------------------
B|--------------------------------------------------------------------------------------------------------
G|-----------2--4--------5-----4--5--------7--5--4--4--5--4--2--------5--4--5--------7--5--4--------------
D|--3--2--------------2-----------------3--------------------------4--------------3--------4--7--------5--
A|--------0--------0-----------------0--------------------------0--------------0-----------6--------2-----
E|--------4--------------------------------------------------------------------------------------0--------

http://www.guitartabcreator.com
Guitar Tab Creator is intended to store guitar tab created through the tool. It currently does not support in-line text editing. Any text you place in here will be lost. If you need to comment on your tab, please use the "Tab Notes" section located below.