Sound will begin in 5 seconds

Untitled

Chords
01234567891011121314151617181920212223
E
B
G
D
A
E
B
0 1 2 3 4 5 6 7 8 9 10 11 12 13 14 15 16 17 18 19 20 21 22 23
Top Courses in Music 160x600
(/) Slide Up  (\) Slide Down  (h) Hammer On  (p) Pull Off  (b) Bend (r) Release (v) Vibrato

Stave 1:

E|------------------------------------------
B|--10--8--8--5--5-----------5--------------
G|------------------7--7--5-----------------
D|------------------------------7--7--5--7--
A|------------------------------------------
E|------------------------------------------

Stave 2:

E|--------------------------------------------
B|--------------------------------------------
G|--------------------------------------------
D|--7--10--12--14------------------17-----11--
A|--7--10--12--14----------14--11------9------
E|--5--8---10--12--10--11---------------------

Stave 3:

E|--
B|--
G|--
D|--
A|--
E|--

Stave 4:

E|--
B|--
G|--
D|--
A|--
E|--

http://www.guitartabcreator.com
Guitar Tab Creator is intended to store guitar tab created through the tool. It currently does not support in-line text editing. Any text you place in here will be lost. If you need to comment on your tab, please use the "Tab Notes" section located below.