Sound will begin in 5 seconds

Riff

Chords
01234567891011121314151617181920212223
E
B
G
D
A
E
B
0 1 2 3 4 5 6 7 8 9 10 11 12 13 14 15 16 17 18 19 20 21 22 23
Song Science #1: How Pros Use 6 Chords to Write Hit Songs
(/) Slide Up  (\) Slide Down  (h) Hammer On  (p) Pull Off  (b) Bend (r) Release (v) Vibrato

Stave 1:

D|----------------------------------------------------------------------------------------------------
A|----------------------------------------------------------------------------------------------------
F|---------------------------------------------------------------------12-----------------------------
C|----------------12p10h12--------------------------------------12p10---------------------5-----------
G|--------------------------------------7p5h7---------------------------------------5--7-----7--5-----
C|--0--0--12--10------------8--5--7--0------------0--0--12--10-------------8--5--7-----------------7--

Stave 2:

D|----------------------------------------------------------------------------------------------
A|----------------------------------------------------------------------------------------------
F|----------------------------------------------------------------------10--7--9--10h12--12b13--
C|--------------------------------------------------------12p10--12/15--------------------------
G|-----12--10-----------------------------------------------------------------------------------
C|--0----------12p10h12--5--3--5--3h5p3--2-----0--12--10----------------------------------------

Stave 3:

D|---------------------------------------------------------0----------------------------
A|---------------------------------------------------------0----------------------------
F|---------------------------------------------------------0----------------------------
C|--0--12--10----------------------------------------------0-----12b13--10h12p10h12p10--
G|-----------------------------------7p5h7-----------------0----------------------------
C|-------------12p10h12--8--5--7--0------------7--5--3--2--0----------------------------

Stave 4:

D|----------------------------------------------------------------
A|----------------------------------------------------------------
F|----------10------10--12--12p10---------------------------------
C|--10--12------12-----------------12--10--8--7--10-----12-----0--
G|-------------------------------------------------------------0--
C|-------------------------------------------------------------0--

Stave 5:

D|--
A|--
F|--
C|--
G|--
C|--

http://www.guitartabcreator.com
Guitar Tab Creator is intended to store guitar tab created through the tool. It currently does not support in-line text editing. Any text you place in here will be lost. If you need to comment on your tab, please use the "Tab Notes" section located below.