Sound will begin in 5 seconds

ONE

Chords
01234567891011121314151617181920212223
E
B
G
D
A
E
B
0 1 2 3 4 5 6 7 8 9 10 11 12 13 14 15 16 17 18 19 20 21 22 23
Top Courses in Music 160x600
(/) Slide Up  (\) Slide Down  (h) Hammer On  (p) Pull Off  (b) Bend (r) Release (v) Vibrato

Stave 1:

E|-------------------------------------------------------------------
B|----------------------------------------------------------6--------
G|----------------------------------------7--------------------------
D|--7-----8-----10-----11--------------7-----7-----------7-----7-----
A|--5-----5-----8------7------------5-----------5-----5-----------5--
E|--3-----5-----7------7---------0-----------------0-----------------

Stave 2:

E|--
B|--
G|--
D|--
A|--
E|--

Stave 3:

E|--------------------------------------------------------------------------------------------
B|--------------------------------------------------------------------------------------------
G|--7-----7/9\6-----6/7/9-----9/10\7-----7--6-------------------------------------------------
D|---------------------------------------------7bbb------7--5--3--7--5--3--7--5--3-----3h5h7--
A|----------------------------------------------------------------------------------7---------
E|--------------------------------------------------------------------------------------------

Stave 4:

E|------------------------------9--10/12-----13-----12--10--9---------------------------------
B|--------------------------10---------------------------------11--10--8----------------------
G|------------------------------------------------------------------------10--9--7------------
D|--5h7h8-----7h8h11----------------------------------------------------------------11--8--7--
A|--------------------------------------------------------------------------------------------
E|--------------------------------------------------------------------------------------------

http://www.guitartabcreator.com
Guitar Tab Creator is intended to store guitar tab created through the tool. It currently does not support in-line text editing. Any text you place in here will be lost. If you need to comment on your tab, please use the "Tab Notes" section located below.