Sound will begin in 5 seconds

Middle Eastern Etude (D standard)

Chords
01234567891011121314151617181920212223
E
B
G
D
A
E
B
0 1 2 3 4 5 6 7 8 9 10 11 12 13 14 15 16 17 18 19 20 21 22 23
Song Science #1: How Pros Use 6 Chords to Write Hit Songs
(/) Slide Up  (\) Slide Down  (h) Hammer On  (p) Pull Off  (b) Bend (r) Release (v) Vibrato

Stave 1:

E|-----------------------------------------------------15--17--17b------15---------------
B|-----------------------------------------15--17--18-----------------------18--17bv-----
G|-----------------------------14--15--18------------------------------------------------
D|-----------------14--15--18------------------------------------------------------------
A|-----14--15--18------------------------------------------------------------------------
E|---------------------------------------------------------------------------------------

Stave 2:

E|--------------------------------------------------------------------------------------
B|--15h17p15\14-----14h15p14\11-----11--------------------------------------------------
G|--------------------------------------14--12--10--14--12--10------12--10----------10--
D|--------------------------------------------------------------14----------14--12------
A|--------------------------------------------------------------------------------------
E|--------------------------------------------------------------------------------------

Stave 3:

E|----------------------------------------------------------------------------------------------------
B|----------------------------------------------------------------------------------------------------
G|-------------------------------------------------------------------------9--9--9\7--7--7/10--10--10-
D|--14--12--11--14--12--11------11--------------------------------------------------------------------
A|--------------------------13------13--12--10--13--12--10-----------------7--7--7-5--5--5-8---8---8-\
E|----------------------------------------------------------13--12v-----------------------------------

Stave 4:

E|-----------
B|-----------
G|--7--7--7--
D|-----------
A|--5--5--5--
E|-----------

http://www.guitartabcreator.com
Guitar Tab Creator is intended to store guitar tab created through the tool. It currently does not support in-line text editing. Any text you place in here will be lost. If you need to comment on your tab, please use the "Tab Notes" section located below.