Sound will begin in 5 seconds

Riff 1 (Full Song)

Chords
01234567891011121314151617181920212223
E
B
G
D
A
E
B
0 1 2 3 4 5 6 7 8 9 10 11 12 13 14 15 16 17 18 19 20 21 22 23
Song Science #1: How Pros Use 6 Chords to Write Hit Songs
(/) Slide Up  (\) Slide Down  (h) Hammer On  (p) Pull Off  (b) Bend (r) Release (v) Vibrato

Stave 1:

E|-----------------------------------------------------
B|-----------------------------------------------------
G|-----------------------------------------------------
D|--4--4--8--8--4--4--7--7--4--4--8--8--4--4--7--6--7--
A|--4--4--8--8--4--4--7--7--4--4--8--8--4--4--7--6--7--
E|--2--2--6--6--2--2--5--5--2--2--6--6--2--2--5--4--5--

Stave 2:

E|-----------------------------------
B|-----------------------------------
G|-----------------------------------
D|--4--4--4--4--4--4--4--4--7--6--7--
A|--4--4--4--4--4--4--4--4--7--6--7--
E|--2--2--2--2--2--2--2--2--5--4--5--

Stave 3:

E|-----------------------------------------------------
B|-----------------------------------------------------
G|--------2-----------1-----------2-----------2--1--2--
D|--4--4-----4--4--4-----4--4--4-----4--4--4-----------
A|--4--4--------4--4--------4--4--------4--4-----------
E|--2--2--------2--2--------2--2--------2--2-----------

Stave 4:

E|-----------------------------------------------------
B|-----------------------------------------------------
G|--3--3--7--7--3--3--6--6--3--3--7--7--3--3--6--5--6--
D|--4--4--8--8--4--4--7--7--4--4--8--8--4--4--7--6--7--
A|--4--4--8--8--4--4--7--7--4--4--8--8--4--4--7--6--7--
E|--2--2--6--6--2--2--5--5--2--2--6--6--2--2--5--4--5--

Stave 5:

E|--------------------------------------------------
B|--------10--------9---------10--------10--9---10--
G|--------12--------11--------12--------12--11--12--
D|--4--4------4--4------4--4------4--4--------------
A|--4--4------4--4------4--4------4--4--------------
E|--2--2------2--2------2--2------2--2--------------

Stave 6:

E|--2--2--6--6--2--5--5--2--2--6--6--2--2--5--4--5--
B|--2--2--6--6--2--5--5--2--2--6--6--2--2--5--4--5--
G|--3--3--7--7--3--6--6--3--3--7--7--3--3--6--5--6--
D|--4--4--8--8--4--7--7--4--4--8--8--4--4--7--6--7--
A|--4--4--8--8--4--7--7--4--4--8--8--4--4--7--6--7--
E|--2--2--6--6--2--5--5--2--2--6--6--2--2--5--4--5--

Stave 7:

E|-----------------------------------------------------------------------------------
B|-----------------------------------------------------------------------------------
G|--3--3--3--3--3--3--3--7--3--3--3--3--3--3--6--3--3--3--3--3--3--7--3--3--6--5--6--
D|--4--4--4--4--4--4--4--8--4--4--4--4--4--4--7--4--4--4--4--4--4--8--4--4--7--6--7--
A|--4--4--4--4--4--4--4--8--4--4--4--4--4--4--7--4--4--4--4--4--4--8--4--4--7--6--7--
E|--2--2--2--2--2--2--2--6--2--2--2--2--2--2--5--2--2--2--2--2--2--6--2--2--5--4--5--

http://www.guitartabcreator.com
Guitar Tab Creator is intended to store guitar tab created through the tool. It currently does not support in-line text editing. Any text you place in here will be lost. If you need to comment on your tab, please use the "Tab Notes" section located below.