Sound will begin in 5 seconds

KevinsNummerZwei

Chords
01234567891011121314151617181920212223
E
B
G
D
A
E
B
0 1 2 3 4 5 6 7 8 9 10 11 12 13 14 15 16 17 18 19 20 21 22 23
Song Science #1: How Pros Use 6 Chords to Write Hit Songs
(/) Slide Up  (\) Slide Down  (h) Hammer On  (p) Pull Off  (b) Bend (r) Release (v) Vibrato

Stave 1:

E|----------------10--------13----------
B|------------------------------11--10--
G|--------------------------------------
D|--------------------------------------
A|--12--------12------------------------
D|--------------------------------------

Stave 2:

E|-----------------------------------------
B|-----------------------------------------
G|--------2-----------------------5--------
D|-----2-----2--------5--------5-----5-----
A|--0--------------5-----5--3--------------
D|--------------5-----------------------2--

Stave 3:

E|--------------------------------------------------
B|--------------------------------------------------
G|--------2-----------------------5-----------------
D|-----2-----2--------5--------5-----5--------2-----
A|--0--------------5-----5--3--------------2-----2--
D|--------------5-----------------------2-----------

Stave 4:

E|-----------------------------------------------------------------------------------------------------
B|-----------------------------------------------------------------------------------------------------
G|-----2--------------------------------------2-----------------7--------5--------2--------------------
D|--------------5--------3--------2--0-----------------5-----------------------------------5--------3--
A|--0-----------------5--------3--------3--0-----------------5--------3--------0-----------------5-----
D|-----------5--------------------------------------5-----------------------------------5--------------

Stave 5:

E|-----------------------------------------
B|-----------------------------------------
G|-----------------------------------------
D|-----2--0--------3--------0--------2-----
A|--3--------3--------------------0--------
D|--------------3--------0-----------------

Stave 6:

E|------------------------------
B|--10--8--------10--8--13--12--
G|--9---7--5--9--9---7--12--12--
D|--7---5--5--9--7---5--10--9---
A|---------3--7-----------------
D|------------------------------

http://www.guitartabcreator.com
Guitar Tab Creator is intended to store guitar tab created through the tool. It currently does not support in-line text editing. Any text you place in here will be lost. If you need to comment on your tab, please use the "Tab Notes" section located below.