Sound will begin in 5 seconds

New Black Metal Song

Chords
01234567891011121314151617181920212223
E
B
G
D
A
E
B
0 1 2 3 4 5 6 7 8 9 10 11 12 13 14 15 16 17 18 19 20 21 22 23
Song Science #1: How Pros Use 6 Chords to Write Hit Songs
(/) Slide Up  (\) Slide Down  (h) Hammer On  (p) Pull Off  (b) Bend (r) Release (v) Vibrato

Stave 1:

E|--------------------------------------------------------------------------------------
B|--------------------------------------------------------------------------------------
G|--------------------------------------------------------------------------------------
D|--------------------------------------------------------------------------------------
A|--------------------------------------------------------------------------------------
E|--2--2--2--2--2--2--2--2--0--7--0--8--2--2--2--2--2--2--2--2--0--7--3--7--6--2--6--3--

Stave 2:

E|---------------------------------------------------
B|---------------------------------------------------
G|---------------------------------------------------
D|---------------------------------------------------
A|---------------------------------------------------
E|--6--6--6--6--6--6--6--6--5--10--9--8--7--8--7--4--

Stave 3:

E|-----------------------
B|-----------------------
G|-----------------------
D|-----------------------
A|-----------------------
E|--0--0--2--3--2--5--6--

Stave 4:

E|--------------------------------------------------
B|--------------------------------------------------
G|--------------------------------------------------
D|--------------------------------------------------
A|--------------------------------------------------
E|--5--5--5--5--5--5--5--5--0--8--7--6--0--8--7--6--

Stave 5:

E|--------------------------------------
B|--------------------------------------
G|--------------------------------------
D|-----------------------------7-----8--
A|--------------------------------------
E|--7--7--7--7--7--7--7--7--0-----0-----

Stave 6:

E|--------------------------------------------------------------------
B|--------------------------------------------------------------------
G|--------------------------------------------------------------------
D|--------------------------------------------------------------------
A|--------------------------------------------------------------------
E|--2--2--2--3--3--2--2--2--3--3--0--2--2--2--3--3--2--2--2--3--3--0--

Stave 7:

E|-----0-----------------------
B|--0-----0--------------------
G|--5--------5--------7--5--4--
D|--7-----------7--5--5--5--4--
A|--0--------------7--7--3--2--
E|-----------------------------

http://www.guitartabcreator.com
Guitar Tab Creator is intended to store guitar tab created through the tool. It currently does not support in-line text editing. Any text you place in here will be lost. If you need to comment on your tab, please use the "Tab Notes" section located below.