Sound will begin in 5 seconds

The Thrill is Gone - B. B. King

01234567891011121314151617181920212223
E
B
G
D
A
E
B
0 1 2 3 4 5 6 7 8 9 10 11 12 13 14 15 16 17 18 19 20 21 22 23
Song Science #1: How Pros Use 6 Chords to Write Hit Songs
(/) Slide Up  (\) Slide Down  (h) Hammer On  (p) Pull Off  (b) Bend (r) Release (v) Vibrato

Stave 1:

E|----------7--10b10--7---------------------------------------------------7--
B|-----12v---------------10--------------------------------------------7-----
G|---------------------------9b11--7--7--9-----7b7-----------7---------------
D|------------------------------------------9-------9--9--9-----9b11v--------
A|---------------------------------------------------------------------------
E|---------------------------------------------------------------------------

Stave 2:

E|--10b12--10--7v--7--10b11--10b12--10b13--10b12--10b11--
B|-------------------------------------------------------
G|-------------------------------------------------------
D|-------------------------------------------------------
A|-------------------------------------------------------
E|-------------------------------------------------------

Stave 3:

E|--10b12--10b11--7--7--10b12--10b11--7--7--10b12--10b11--10--7-------
B|---------------------------------------------------------------12v--
G|--------------------------------------------------------------------
D|--------------------------------------------------------------------
A|--------------------------------------------------------------------
E|--------------------------------------------------------------------

Stave 4:

E|--10b11--12--12--10-----------
B|---------------------12v--12--
G|------------------------------
D|------------------------------
A|------------------------------
E|------------------------------

Stave 5:

E|--12--12/14--10h12--10------10------10b11------
B|------------------------12------12---------12--
G|-----------------------------------------------
D|-----------------------------------------------
A|-----------------------------------------------
E|-----------------------------------------------

Stave 6:

E|--
B|--
G|--
D|--
A|--
E|--

Stave 7:

E|--
B|--
G|--
D|--
A|--
E|--

http://www.guitartabcreator.com
Guitar Tab Creator is intended to store guitar tab created through the tool. It currently does not support in-line text editing. Any text you place in here will be lost. If you need to comment on your tab, please use the "Tab Notes" section located below.