Sound will begin in 5 seconds

Don't Fear the Reaper Mix

01234567891011121314151617181920212223
E
B
G
D
A
E
B
0 1 2 3 4 5 6 7 8 9 10 11 12 13 14 15 16 17 18 19 20 21 22 23
Song Science #1: How Pros Use 6 Chords to Write Hit Songs
(/) Slide Up  (\) Slide Down  (h) Hammer On  (p) Pull Off  (b) Bend (r) Release (v) Vibrato

Stave 1:

E|--------------------------------------------------
B|--------------------------------------------------
G|--------2--0-----------0-----------0-----------0--
D|-----2--------------0-----------0-----------0-----
A|--0--------------2-----------3-----------2--------
E|--------------3-----------1-----------3-----------

Stave 2:

E|--------------------------------------------------------------------------------------------------
B|--------------------------------------------------------------------------------------------------
G|--------------------------------------------------------------------------------------------------
D|--------------------------------------------------------------------------------------------------
A|-----3-----3-----3-----3-----5-----5-----5-----5-----7-----7-----7-----7-----7-----7-----7-----7--
E|--1-----1-----1-----1-----3-----3-----3-----3-----5-----5-----5-----5-----5-----5-----5-----5-----

Stave 3:

E|--------------------------------------------------------------------------------------------------
B|--------------------------------------------------------------------------------------------------
G|--------------------------------------------------------------------------------------------------
D|--------------------------------------------------------------------------------------------------
A|-----3-----3-----3-----3-----2-----2-----2-----2-----7-----7-----7-----7-----5-----5-----5-----5--
E|--1-----1-----1-----1-----0-----0-----0-----0-----5-----5-----5-----5-----3-----3-----3-----3-----

Stave 4:

E|--------------------------------------------------
B|--------------------------------------------------
G|--------2--0-----------0-----------0-----------0--
D|-----2--------------0-----------0-----------0-----
A|--0--------------2-----------3-----------2--------
E|--------------3-----------1-----------3-----------

Stave 5:

E|--------------------------------------------------------------------------------------------------
B|--------------------------------------------------------------------------------------------------
G|--------------------------------------------------------------------------------------------------
D|--------------------------------------------------------------------------------------------------
A|-----3-----3-----3-----3-----5-----5-----5-----5-----7-----7-----7-----7-----7-----7-----7-----7--
E|--1-----1-----1-----1-----3-----3-----3-----3-----5-----5-----5-----5-----5-----5-----5-----5-----

Stave 6:

E|--------------------------------------------------------------------------------------------------
B|--------------------------------------------------------------------------------------------------
G|--------------------------------------------------------------------------------------------------
D|--------------------------------------------------------------------------------------------------
A|-----3-----3-----3-----3-----2-----2-----2-----2-----7-----7-----7-----7-----5-----5-----5-----5--
E|--1-----1-----1-----1-----0-----0-----0-----0-----5-----5-----5-----5-----3-----3-----3-----3-----

Stave 7:

E|--------------------------------------------------------------------------------------------------
B|----------13----------13----------13----------13----------12----------12----------12----------12--
G|--10--13------10--13------10--13------10--13------10--12------10--12------10--12------10--12------
D|--------------------------------------------------------------------------------------------------
A|--------------------------------------------------------------------------------------------------
E|--------------------------------------------------------------------------------------------------

Stave 8:

E|--------------------------------------------------------------------------------------------------
B|----------13----------13----------13----------13----------12----------12----------12----------12--
G|--10--13------10--13------10--13------10--13------10--12------10--12------10--12------10--12------
D|--------------------------------------------------------------------------------------------------
A|--------------------------------------------------------------------------------------------------
E|--------------------------------------------------------------------------------------------------

Stave 9:

E|--------------------------------------------------------------------------
B|--------------------------------------------------------------------------
G|-----------------------------------------------------------0-----------0--
D|--------------------------------------------------------0-----------0-----
A|-----3-----5-----7-----7-----3-----2-----7-----5-----3-----------2--------
E|--1-----3-----5-----5-----1-----0-----5-----3-----1-----------3-----------

http://www.guitartabcreator.com
Guitar Tab Creator is intended to store guitar tab created through the tool. It currently does not support in-line text editing. Any text you place in here will be lost. If you need to comment on your tab, please use the "Tab Notes" section located below.