Sound will begin in 5 seconds

Jimmy - Madina Lake

01234567891011121314151617181920212223
E
B
G
D
A
E
B
0 1 2 3 4 5 6 7 8 9 10 11 12 13 14 15 16 17 18 19 20 21 22 23
Top Courses in Music 160x600
(/) Slide Up  (\) Slide Down  (h) Hammer On  (p) Pull Off  (b) Bend (r) Release (v) Vibrato

Stave 1:

E|-------------------------------------------------------------------------------------------------------------------------------------4--2----------
B|-------------------------------------------------------------------------------------------------------------------------------------------4h5--4--
G|--5--5--5-------5--5-----5--5--5-----8--6--5\3--3--3\1\4--3\1\4-----5--5--5--5-------5--5-----5--5--5--5-----8--6--5\3--3--3\1\4--1----------------
D|-----------6\8--------------------6---------------------------------------------6\8-----------------------6----------------------------------------
A|---------------------------------------------------------------------------------------------------------------------------------------------------
E|---------------------------------------------------------------------------------------------------------------------------------------------------

Stave 2:

E|-----------------------------------------2--4--2p0----------------------------------------------------------------------------
B|--4--4--4--4--5--4--0--0-----0--4--4--4-------------4--4--4--5--4p0--0-----0--4--5--4-----4-----------------------------------
G|------------------------------------------------------------------------------------------------------------------------------
D|------------------------------------------------------------------------------------------------------------------------------
A|------------------------------------------------------------------------------------------------------------------------------
E|------------------------------------------------------------------------------------------------------------------------------

http://www.guitartabcreator.com
Guitar Tab Creator is intended to store guitar tab created through the tool. It currently does not support in-line text editing. Any text you place in here will be lost. If you need to comment on your tab, please use the "Tab Notes" section located below.