Sound will begin in 5 seconds

BohemianRhapsody

01234567891011121314151617181920212223
E
B
G
D
A
E
B
0 1 2 3 4 5 6 7 8 9 10 11 12 13 14 15 16 17 18 19 20 21 22 23
Song Science #1: How Pros Use 6 Chords to Write Hit Songs
(/) Slide Up  (\) Slide Down  (h) Hammer On  (p) Pull Off  (b) Bend (r) Release (v) Vibrato

Stave 1:

G|-----------------------------------------------------------------------------
D|----------------------------------15\----------------------------------------
A|----1----1----1---------3----3-------1---------3----2----1----0--------------
E|-------------------3----------------------3------------------------4----3----

Stave 2:

G|------------------------------------------------------------------------------------
D|-------------------3----2----1----0-----------------------------------------6/13----
A|----6----5----3------------------------1----1----1----1----1/6----5----3------------
E|------------------------------------------------------------------------------------

Stave 3:

G|-----------------------------------------------------------------------------
D|----------------------------------15\----------------------------------------
A|----1----1----1---------3----3-------1---------3----2----1----0--------------
E|-------------------3----------------------3------------------------4----3----

Stave 4:

G|---------------------------------------------------------------------------------------------------------------
D|-------------------3----2----1----0----------------------------------------------------------------------------
A|----6----5----3------------------------1----1----1----1----1----1----1----1----1----1----1----1----1----1/6----
E|---------------------------------------------------------------------------------------------------------------

Stave 5:

G|------------------------5------------------------------------------------------3---------3---------3/8----
D|-------------------5---------5----3----2----1----0------------------------3---------3---------3-----------
A|----6----5----3---------------------------------------1----1----1----1------------------------------------
E|----------------------------------------------------------------------------------------------------------

Stave 6:

G|-------------------------------------------------5--------------------------------------------------------------
D|--------------------------------------------5---------5----3----2----1----0-------------------------------------
A|----6----6----6----5----5----3----3----3---------------------------------------4----4----3----2----1/12----0----
E|----------------------------------------------------------------------------------------------------------------

Stave 7:

G|-----------------------------------------------------------
D|----6----6----6----6----6----6----5----5-------------------
A|--------------------------------------------7--------------
E|-------------------------------------------------0----5----

Stave 8:

G|------------------------------------------------------------------------------------------------------------------
D|-----------------------------------------------------------6----6----6----5----5----------------------------------
A|----6----6----6----6----6----6----6----6----6----6----6-----------------------------8----8----6----5--------------
E|--------------------------------------------------------------------------------------------------------8----6----

Stave 9:

G|---------------------------------------------------------------------------------------------------------------------------------------------------------------------------------------------------------------------------
D|------------------------------------------------------------------------------------------------------------------------------------------------------------------------------------------------------------4--------------
A|---------6--------------------------------------------6--------------------------------------------6----------------------------------------------------------------------------------------------5----4--------------6----
E|----6---------6----6----6----6----6----6----6----6---------6----6----6----6----6----6----6----6---------6----6----6----6----6----6----6----6----6----6----6----6----6----6----6----6----7----5-------------------6---------

Stave 10:

G|---------------------------------------------------------------------------------------------------
D|--------------6---------------------------------------6----6----6------------------------5----5----
A|----6----6---------6----5-------------------6----6-------------------5----5----5----5--------------
E|-----------------------------8----6----6-----------------------------------------------------------

Stave 11:

G|--------------------------------------------------------------------------------------------------------------------------------------
D|--------------------------------------------------------------------------------------------------------------------------------------
A|--------------------------------------------------------------------------------------------------------------------------------------
E|----6----6----6----6----6----6----6----6----6----6----6----6----6----6----6----6----6----6----6----6----6----6----6----6----6----6----

Stave 12:

G|--------------------------------------------------------------------------------------------------------------------------------------
D|--------------------------------------------------------------------------------------------------------------------------------------
A|----6-------------------3----5----6----6-------------------3---------6-------------------3----5----6----8-------------------5---------
E|---------3----4----6------------------------3----4----6---------6---------3----4----6------------------------5----6----8---------8----

Stave 13:

G|--------------------------------------------------------------------------------------------------------3----3----1----3----1----
D|----------------------------------------------------------------1----1----1----1-------------------------------------------------
A|----1----1----1----1----1----1----1----1----1----1----1----1------------------------1----1----1----1-----------------------------
E|---------------------------------------------------------------------------------------------------------------------------------

Stave 14:

G|--------------6----
D|----3--------------
A|---------4---------
E|-------------------

Stave 15:

G|----------------------------------------------------------------------------------------------
D|------------------------------------------------------1----1----1----1------------------------
A|----1----1----1----1----1----1----1----1----1----1--------------------------------------------
E|--------------------------------------------------------------------------4----4----4----3----

Stave 16:

G|------------------------------------------------------------------------------------------------------------------
D|--------------3-------------------3-------------------------------------------------3-------------------3---------
A|---------3---------3---------3---------3----1----1----1----1----1----1---------3---------3---------3---------3----
E|----1-------------------1-------------------------------------------------1-------------------1-------------------

http://www.guitartabcreator.com
Guitar Tab Creator is intended to store guitar tab created through the tool. It currently does not support in-line text editing. Any text you place in here will be lost. If you need to comment on your tab, please use the "Tab Notes" section located below.