Sound will begin in 5 seconds

Cantico 97

01234567891011121314151617181920212223
E
B
G
D
A
E
B
0 1 2 3 4 5 6 7 8 9 10 11 12 13 14 15 16 17 18 19 20 21 22 23
Top Courses in Music 160x600
(/) Slide Up  (\) Slide Down  (h) Hammer On  (p) Pull Off  (b) Bend (r) Release (v) Vibrato

Stave 1:

E|--------------0-----0--2--5--
B|-----3-----3-----3-----------
G|--2-----2--------------------
D|-----------------------------
A|-----------------------------
E|-----------------------------

Stave 2:

E|--5--7--5--2-----2--0--
B|--------------3--------
G|-----------------------
D|-----------------------
A|-----------------------
E|-----------------------

Stave 3:

E|-----0-----0--2--0--3--7--
B|--0-----0-----------------
G|--------------------------
D|--------------------------
A|--------------------------
E|--------------------------

Stave 4:

E|--7--9--7--5--0--3--2--
B|-----------------------
G|-----------------------
D|-----------------------
A|-----------------------
E|-----------------------

Stave 5:

E|--5--10--5--3--2--3--5--7--2--
B|------------------------------
G|------------------------------
D|------------------------------
A|------------------------------
E|------------------------------

Stave 6:

E|--2--5--3--2--0--2-----0--
B|--------------------3-----
G|--------------------------
D|--------------------------
A|--------------------------
E|--------------------------

Stave 7:

E|--------------0-----0--2--5--
B|-----3-----3-----3-----------
G|--2--------------------------
D|--------2--------------------
A|-----------------------------
E|-----------------------------

Stave 8:

E|--7--9--7--3--0-----------
B|-----------------3--2--3--
G|--------------------------
D|--------------------------
A|--------------------------
E|--------------------------

http://www.guitartabcreator.com
Guitar Tab Creator is intended to store guitar tab created through the tool. It currently does not support in-line text editing. Any text you place in here will be lost. If you need to comment on your tab, please use the "Tab Notes" section located below.