Sound will begin in 5 seconds

Perceptives

01234567891011121314151617181920212223
E
B
G
D
A
E
B
0 1 2 3 4 5 6 7 8 9 10 11 12 13 14 15 16 17 18 19 20 21 22 23
Top Courses in Music 160x600
(/) Slide Up  (\) Slide Down  (h) Hammer On  (p) Pull Off  (b) Bend (r) Release (v) Vibrato

Stave 1:

E|-----------0--------------0--------------0--------------0--
B|-----6--------------6--------------6--------------6--------
G|--------7--------------7--------------7--------------7-----
D|--7--------------7--------------7--------------7-----------
A|-----------------------------------------------------------
E|-----------------------------------------------------------

Stave 2:

E|-----------0--------------0--------------0--------------0--
B|-----5--------------5--------------5--------------5--------
G|--------7--------------7--------------7--------------7-----
D|--6--------------6--------------6--------------6-----------
A|-----------------------------------------------------------
E|-----------------------------------------------------------

Stave 3:

E|-----------0--------------0--------------0--------------0--
B|-----6--------------6--------------6--------------6--------
G|--------2--------------2--------------2--------------2-----
D|--3--------------3--------------3--------------3-----------
A|-----------------------------------------------------------
E|-----------------------------------------------------------

Stave 4:

E|-----------0--------------0--------------0--------------0--
B|-----6--------------6--------------6--------------6--------
G|--------2--------------2--------------2--------------2-----
D|-----------------------------------------------------------
A|--4--------------4--------------4--------------4-----------
E|-----------------------------------------------------------

Stave 5:

E|-----------0--------------0--------------0--------------0--
B|-----0--------------0--------------0--------------0--------
G|--------2--------------2--------------2--------------2-----
D|-----------------------------------------------------------
A|--3--------------3--------------3--------------3-----------
E|-----------------------------------------------------------

Stave 6:

E|-----------------------------------------------------------
B|-----------6--------------6--------------6--------------6--
G|-----4--------------4--------------4--------------4--------
D|--------6--------------6--------------6--------------6-----
A|--5--------------5--------------5--------------5-----------
E|-----------------------------------------------------------

Stave 7:

E|-----------------------------------------------------------
B|-----------6--------------6--------------6--------------6--
G|-----4--------------4--------------4--------------4--------
D|--------6--------------6--------------6--------------6-----
A|--5--------------5--------------5--------------5-----------
E|-----------------------------------------------------------

http://www.guitartabcreator.com
Guitar Tab Creator is intended to store guitar tab created through the tool. It currently does not support in-line text editing. Any text you place in here will be lost. If you need to comment on your tab, please use the "Tab Notes" section located below.