Sound will begin in 5 seconds

masters of FUCKING time

Chords
01234567891011121314151617181920212223
E
B
G
D
A
E
B
0 1 2 3 4 5 6 7 8 9 10 11 12 13 14 15 16 17 18 19 20 21 22 23
Top Courses in Music 160x600
(/) Slide Up  (\) Slide Down  (h) Hammer On  (p) Pull Off  (b) Bend (r) Release (v) Vibrato

Capo Fret 3

Stave 1:

E|---------------------
B|-0-0-0-0-0-0-0-0-0-0-
G|-0-0-0-0-0-0-0-0-0-0-
D|-2-4-7-5-7-4-2-0-2-0-
A|-3-5-5-3-5-5-3-2-3-2-
E|-3-5-7-5-7-5-3-3-3-3-

Stave 2:

E|---------
B|-0-0-0-0-
G|-7-0-0-0-
D|-5-0-0-5-
A|-7-7-3-0-
E|---8-3-5-

Stave 3:

E|-
B|-
G|-
D|-
A|-
E|-

Stave 4:

E|----------------------------------------------------------------------------------------
B|----------------------------------------------------------------------------------------
G|-------------15p14----------------15p14-------------------------------------------------
D|-------15----------15-------15----------15----------12----13p12----------12----13p12----
A|-13-13----13----------13-13----13-------------13-13----13-------13-13-13----13-------13-
E|----------------------------------------------------------------------------------------

Stave 5:

E|-----------------------------------------------------------------------------------
B|-----------------------------------------------------------------------------------
G|-----------------------------------------------------------------------------------
D|-------12----13p12----15-13-12-12-13-12----8-8-8-8-8-8-8-8-10-10-10-10-10-10-10-10-
A|-13-13----13-------13----------------------8-8-8-8-8-8-8-8-8--8--8--8--8--8--8--8--
E|-----------------------------------------------------------------------------------

Stave 6:

E|----------------
B|----------------
G|----------------
D|-0-0-0-0-0-0-0--
A|-3-5-7-2-3-5-10-
E|-3-5-7-2-3-5-10-

Stave 7:

E|------------------------------------------------------
B|------------------------------------------------------
G|------------------------------------------------------
D|-8-10----8h10-13-12-10-8----8-8h10----8h10-13-12-10-8-
A|------------------------------------------------------
E|------------------------------------------------------

http://www.guitartabcreator.com
Guitar Tab Creator is intended to store guitar tab created through the tool. It currently does not support in-line text editing. Any text you place in here will be lost. If you need to comment on your tab, please use the "Tab Notes" section located below.