Sound will begin in 5 seconds

fet som fan

01234567891011121314151617181920212223
E
B
G
D
A
E
B
0 1 2 3 4 5 6 7 8 9 10 11 12 13 14 15 16 17 18 19 20 21 22 23
Top Courses in Music 160x600
(/) Slide Up  (\) Slide Down  (h) Hammer On  (p) Pull Off  (b) Bend (r) Release (v) Vibrato

Stave 1:

G|-----------------------------------------------------------------------------
D|-------------------0-0-0-0-0-------------------------------------------------
A|---------------8-8-----------8-8---------------------6-5---------------6-5---
E|-6-6-6-6-6-8-8-------------------8-8-6-6-6-6-6-6-6-6-----6-6-6-6-6-6-6-----6-

Stave 2:

G|-----------------------------------------------------------------------------------------
D|-------------------0-0-0-0-0-------------------------------------------------------------
A|---------------8-8-----------8-8---------------------6-5---------------6-5-------------1-
E|-6-6-6-6-6-8-8-------------------8-8-6-6-6-6-6-6-6-6-----6-6-6-6-6-6-6-----6-6\3/6-6\3---

Stave 3:

G|-------------------------------------------------------------------------------------------
D|-------------------------------------------------------------------------------------------
A|-1-1-1-1-8-8-6-5-3-3-------8-8-6-5-3-----------6-5-5-5-6-5---------------------------------
E|---------------------6-6-6-----------6-6-6-6-6-------------6-6-6-6-6-6-6-6-8-8-8-8-8-8-8-8-

Stave 4:

G|---------------------------------------------------------------------------------------------
D|---------------------------------------------------------------------------------------------
A|-1-1-1-1-8-8-10-10-----------8-8-10-10-----------6-5-5-5-6-5---------------------------------
E|-------------------6-6-6-6-6-----------6-6-6-6-6-------------6-6-6-6-6-6-6-6-8-8-8-8-8-8-8-8-

Stave 5:

G|---------------------------------------------
D|---------------------------------------------
A|---------------------------------------------
E|-6-8----6/8-11-10-8-6-6-6/8----6/8-11-10-8-6-

Stave 6:

G|---------------------------------------------------------------
D|---------------------------------------------------------------
A|---------------------------------------------------------------
E|-6-6-6-6-6-6-6-6-6-6-6-6-6-6-6-6-8-8-8-8-8-8-8-8-8-8-8-8-8-8-8-

Stave 7:

G|-------------------------------------------------------------------------------------------------
D|-------------------------------------------------------------------------------------------------
A|-------------------------------------------------------------------------------------------------
E|-10-10-10-10-10-10-10-10-10-10-10-10-10-10-10-10-13-13-13-13-13-13-13-13-13-13-13-13-13-13-13-13-

Stave 8:

G|---------------------------------
D|---------------------------------
A|---------------------------------
E|-6-6-6-6-6-6-6-6-6-6-6-6-6-6-6-6-

Stave 9:

G|-------------------------------------------------------------------------
D|-------------------------------------------------------------------------
A|-------------------------------------------------------------------------
E|-3-3-3-3-3-3-3-3-11-11-11-11-11-11-11-11-6-6-6-6-6-6-6-6-8-8-8-8-8-8-8-8-

http://www.guitartabcreator.com
Guitar Tab Creator is intended to store guitar tab created through the tool. It currently does not support in-line text editing. Any text you place in here will be lost. If you need to comment on your tab, please use the "Tab Notes" section located below.