Sound will begin in 5 seconds

Slesis

Chords
01234567891011121314151617181920212223
E
B
G
D
A
E
B
0 1 2 3 4 5 6 7 8 9 10 11 12 13 14 15 16 17 18 19 20 21 22 23
Song Science #1: How Pros Use 6 Chords to Write Hit Songs
(/) Slide Up  (\) Slide Down  (h) Hammer On  (p) Pull Off  (b) Bend (r) Release (v) Vibrato

Capo Fret 2

Stave 1:

E|--------------------------------------
B|--------------------------------------
G|-----------14v-----------14v-----12v--
D|--------------------------------------
A|--2--2--2-------2--2--2-------2-------
E|--2--2--2-------2--2--2-------2-------

Stave 2:

E|----------------------------------------------------
B|-----------------------------------------14---------
G|-----------12--------14--------15---------------15--
D|----------------------------------------------------
A|--2--2--2------2--2------2--2------2--2------2------
E|--2--2--2------2--2------2--2------2--2------2------

Stave 3:

E|-----------------------------------------------------------
B|--------------------------------------------------------7--
G|--------------------------------------------------------5--
D|-----------------------------------------------------------
A|--4--4--4--4--------4--4--4--4--4--4--------4--4--4--4-----
E|--2--2--2--2--0--0--2--2--2--2--2--2--0--0--2--2--2--2-----

Stave 4:

E|---------------------------------------------------------------------
B|---------------------------------------------------------------------
G|---------------------------------------------------------------------
D|--------------------------------------------------------10--9--8--7--
A|--4--4--4--4--------4--4--4--4--4--4--------4--4--4--4--8---7--6--5--
E|--2--2--2--2--0--0--2--2--2--2--2--2--0--0--2--2--2--2---------------

Stave 5:

E|----------------------------------------------------------------------
B|----------------------------------------------------------------------
G|----------------------------------------------------------------------
D|----------------------------6-----------------------------------------
A|---b4-----4-----4-----4-----------4-----4-----4-----4-----8--7--6--5--
E|--2----2-----2-----2-----2-----2-----2-----2-----2-----2--------------

http://www.guitartabcreator.com
Guitar Tab Creator is intended to store guitar tab created through the tool. It currently does not support in-line text editing. Any text you place in here will be lost. If you need to comment on your tab, please use the "Tab Notes" section located below.