Sound will begin in 5 seconds

Si Bheag Si Mhor

Chords
01234567891011121314151617181920212223
E
B
G
D
A
E
B
0 1 2 3 4 5 6 7 8 9 10 11 12 13 14 15 16 17 18 19 20 21 22 23
Top Courses in Music 160x600
(/) Slide Up  (\) Slide Down  (h) Hammer On  (p) Pull Off  (b) Bend (r) Release (v) Vibrato

Stave 1:

D|--------------------------------------5--4--0----
A|----------------------4--2---------0-------------
D|-----------0--------------------------------2h4--
G|-------------------------------------------------
A|--0-----------------------------------2--0-------
D|-----0--2--2h4-----2--0--0-----h2--0-------------

Stave 2:

D|--------5----------------------------------------------
A|---------------------0---------------------------------
D|----------------------------------------0-----------4--
G|-----0-------------------------------------------------
A|--0-----2h0--2h4---------------------------------------
D|------------------0--0h2-----h5h2--0h2--2h4--4h2h4--0--

Stave 3:

D|-----5-----4--------
A|-----------------0--
D|-----------------4--
G|--------------------
A|-----2-----0--------
D|--4-----2-----0-----

http://www.guitartabcreator.com
Guitar Tab Creator is intended to store guitar tab created through the tool. It currently does not support in-line text editing. Any text you place in here will be lost. If you need to comment on your tab, please use the "Tab Notes" section located below.