Sound will begin in 5 seconds

True Fine Love (guitar solo) Steve Miller

01234567891011121314151617181920212223
E
B
G
D
A
E
B
0 1 2 3 4 5 6 7 8 9 10 11 12 13 14 15 16 17 18 19 20 21 22 23
Top Courses in Music 160x600
(/) Slide Up  (\) Slide Down  (h) Hammer On  (p) Pull Off  (b) Bend (r) Release (v) Vibrato

Capo Fret 1

Stave 1:

E|------------------------------------------------------------------------------------------------
B|------------------------------------------------------------------------------------------------
G|------------------------------------------------------------------------------------------------
D|---------------8-----10b10--8h10p8-----------------8--10b10-----8--10--8--10--8-----------8--8--
A|---/---10--10--------------------------/---10--10--------------------------------10p8h10--------
E|------------------------------------------------------------------------------------------------

Stave 2:

E|-------------------------------------------------------------------------------------------------
B|---------------------------------------------------------------------11--11------11------11--11--
G|--------------------------------------10--10------10---------10--10----------12------12----------
D|--8--8h10/12--12--10--12--10--12--12----------12---------12--------------------------------------
A|-------------------------------------------------------------------------------------------------
E|-------------------------------------------------------------------------------------------------

Stave 3:

E|---------------------------------------------------------------------------------------------
B|--13--13--11--13--11--13--11--13b13b13b---11--13-----13--13--13--13/14--13--11--13--13b13b13b
G|---------------------------------------------------------------------------------------------
D|---------------------------------------------------------------------------------------------
A|---------------------------------------------------------------------------------------------
E|---------------------------------------------------------------------------------------------

Stave 4:

E|--
B|--
G|--
D|--
A|--
E|--

http://www.guitartabcreator.com
Guitar Tab Creator is intended to store guitar tab created through the tool. It currently does not support in-line text editing. Any text you place in here will be lost. If you need to comment on your tab, please use the "Tab Notes" section located below.