Sound will begin in 5 seconds

Our God in C#m

01234567891011121314151617181920212223
E
B
G
D
A
E
B
0 1 2 3 4 5 6 7 8 9 10 11 12 13 14 15 16 17 18 19 20 21 22 23
Song Science #1: How Pros Use 6 Chords to Write Hit Songs
(/) Slide Up  (\) Slide Down  (h) Hammer On  (p) Pull Off  (b) Bend (r) Release (v) Vibrato

Stave 1:

E|--12--9--16--14--|--12--17--16--14--
B|-----------------|------------------
G|-----------------|------------------
D|-----------------|------------------
A|-----------------|------------------
E|-----------------|------------------

Stave 2:

E|--12--17--16--|--12--17--16--19--|--14--|------14------14------14----------
B|--------------|------------------|------|--17------17------17------17--16--
G|--------------|------------------|------|----------------------------------
D|--------------|------------------|------|----------------------------------
A|--------------|------------------|------|----------------------------------
E|--------------|------------------|------|----------------------------------

Stave 3:

E|--12--17--16--14--
B|------------------
G|------------------
D|------------------
A|------------------
E|------------------

Stave 4:

E|--------------------------|----------------------|--
B|-----12-----12-----12-----|-----12-----9--10--9--|--
G|--9------9------9------9--|--9------9------------|--
D|--------------------------|----------------------|--
A|--------------------------|----------------------|--
E|--------------------------|----------------------|--

http://www.guitartabcreator.com
Guitar Tab Creator is intended to store guitar tab created through the tool. It currently does not support in-line text editing. Any text you place in here will be lost. If you need to comment on your tab, please use the "Tab Notes" section located below.