Sound will begin in 5 seconds

Cult of Personality

01234567891011121314151617181920212223
E
B
G
D
A
E
B
0 1 2 3 4 5 6 7 8 9 10 11 12 13 14 15 16 17 18 19 20 21 22 23
Top Courses in Music 160x600
(/) Slide Up  (\) Slide Down  (h) Hammer On  (p) Pull Off  (b) Bend (r) Release (v) Vibrato

Stave 1:

E|--------------------------------
B|--------------------------------
G|--------------------------------
D|-----3--0-----2-----3--0-----2--
A|--------------------------------
E|--3--------3-----3--------3-----

Stave 2:

E|-----------------------------------
B|-----------------------------------
G|-----------------------------------
D|-----3--0-----2-----3--0-----2--2--
A|-----------------------------------
E|--3--------3-----3--------3--------

Stave 3:

E|--------------------------------------
B|--------------------------------------
G|-----------------------2--------------
D|-----3--0-----5--3--------3-----------
A|--------------------5--------5--3--2--
E|--3--------3--------------------------

Stave 4:

E|--------------------------------
B|--------------------------------
G|--------------------------------
D|-----3--0-----2-----3--0-----2--
A|--------------------------------
E|--3--------3-----3--------3-----

Stave 5:

E|-----------------------------------
B|-----------------------------------
G|-----------------------------------
D|-----3--0-----2-----3--0-----2--2--
A|-----------------------------------
E|--3--------3-----3--------3--------

Stave 6:

E|--------------------------------------
B|--------------------------------------
G|--------------2--------5--4-----------
D|-----3--0--------3-----------5--3-----
A|--------------------5--------------5--
E|--3--------3--------------------------

http://www.guitartabcreator.com
Guitar Tab Creator is intended to store guitar tab created through the tool. It currently does not support in-line text editing. Any text you place in here will be lost. If you need to comment on your tab, please use the "Tab Notes" section located below.