Sound will begin in 5 seconds

Voulez Vous - V2 - Abba

01234567891011121314151617181920212223
E
B
G
D
A
E
B
0 1 2 3 4 5 6 7 8 9 10 11 12 13 14 15 16 17 18 19 20 21 22 23
Top Courses in Music 160x600
(/) Slide Up  (\) Slide Down  (h) Hammer On  (p) Pull Off  (b) Bend (r) Release (v) Vibrato

Stave 1:

G|-----------------------------------------------------------------------------
D|--------------------10-----10-----10--------9-----9-----9--------11------13--
A|-----------------------------------------------------------------------------
E|-----------------7------7------7------7--7-----7-----7--------9------11------

Stave 2:

G|-----------------------------------------------------------------------------
D|--------------------------------------------------------------------5-----7--
A|--------------5h7--------------5h7--------------5h7--------------------------
E|--0--0--0--0-------0--0--0--0-------0--0--0--0-------0--0--0--0--3-----5-----

Stave 3:

G|-----------------------------------------------------------------
D|-----9-----9-----9-----9-----9-----9-----11------13--------------
A|-----------------------------------------------------------------
E|--7-----7-----7-----7-----7-----7-----9------11------0--0--0--0--

Stave 4:

G|--------------------------------------------------------------------------------
D|-----9-----9-----9-----9-----9-----9-----9-----9-----9-----9-----7-----5--------
A|--------------------------------------------------------------------------------
E|--7-----7-----7-----7-----7-----7-----7-----7-----7-----7-----5-----3-----0--0--

http://www.guitartabcreator.com
Guitar Tab Creator is intended to store guitar tab created through the tool. It currently does not support in-line text editing. Any text you place in here will be lost. If you need to comment on your tab, please use the "Tab Notes" section located below.