Sound will begin in 5 seconds

f

Chords
01234567891011121314151617181920212223
E
B
G
D
A
E
B
0 1 2 3 4 5 6 7 8 9 10 11 12 13 14 15 16 17 18 19 20 21 22 23
Top Courses in Music 160x600
(/) Slide Up  (\) Slide Down  (h) Hammer On  (p) Pull Off  (b) Bend (r) Release (v) Vibrato

Stave 1:

E|----------------------------------------------------------------------------------------------------------
B|----------------------------------------------------------------------------------------------------------
G|--------------12----------------------12----------------------12----------------------12------------------
D|----------12------12--------------12------12--------------12------12--------------12------12--------------
A|------12--------------12------12--------------12------12--------------12------12--------------12----------
E|--12----------------------12----------------------12----------------------12----------------------12--12--

Stave 2:

E|------------------------------------------------------------------------------------------------------
B|------------------------------------------------------------------------------------------------------
G|--------------12----------------------12----------------------12----------------------12--------------
D|----------12------12--------------12------12--------------12------12--------------12------12----------
A|------12--------------12------12--------------12------12--------------12------12--------------12------
E|--12----------------------12----------------------12----------------------12----------------------12--

Stave 3:

E|--------------------------------------------------------------------------
B|--------------------------------------------------------------------------
G|-----------0-----------------0-----------------0-----------------0--------
D|--------0-----0-----------0-----0-----------0-----0-----------0-----0-----
A|-----0-----------0-----0-----------0-----0-----------0-----0-----------0--
E|--4-----------------2-----------------0-----------------0-----------------

Stave 4:

E|--------------------------------------------------------------------------
B|--------------------------------------------------------------------------
G|-----------0-----------------0-----------------0-----------------0--------
D|--------0-----0-----------0-----0-----------0-----0-----------0-----0-----
A|-----0-----------0-----0-----------0-----0-----------0-----0-----------0--
E|--4-----------------7-----------------5-----------------5-----------------

Stave 5:

E|-----------------------------------------------------------------------------------------------
B|-----------------------------------------------------------------------------------------------
G|-----------0-----------------0-----------------0-----------------0-----------------0-----------
D|--------0-----0-----------0-----0-----------0-----0-----------0-----0-----------0-----0--------
A|-----0-----------0-----0-----------0-----0-----------0-----0-----------0-----0-----------0-----
E|--5-----------------5-----------------5-----------------5-----------------5-----------------5--

Stave 6:

E|------------------------------------------------------------------------------------------------
B|------------------------------------------------------------------------------------------------
G|-----------0-----------------0------------------0-----------------0-----------------0-----------
D|--------0-----0-----------0-----0------------0-----0-----------0-----0-----------0-----0--------
A|-----0-----------0-----0-----------0------0-----------0-----0-----------0-----0-----------0-----
E|--7-----------------9-----------------10-----------------9-----------------7-----------------5--

Stave 7:

E|-----------------------------------------------------------------------
B|-----------------------------------------------------------------------
G|--------0-----------------0-----------------0-----------------0-----0--
D|-----0-----0-----------0-----0-----------0-----0-----------0-----0--0--
A|--0-----------0-----0-----------0-----0-----------0-----0-----------0--
E|-----------------5-----------------5-----------------5--------------5--

http://www.guitartabcreator.com
Guitar Tab Creator is intended to store guitar tab created through the tool. It currently does not support in-line text editing. Any text you place in here will be lost. If you need to comment on your tab, please use the "Tab Notes" section located below.