Sound will begin in 5 seconds

Cream - Sunshine of your Love (justinguitar)

Chords
01234567891011121314151617181920212223
E
B
G
D
A
E
B
0 1 2 3 4 5 6 7 8 9 10 11 12 13 14 15 16 17 18 19 20 21 22 23
Top Courses in Music 160x600
(/) Slide Up  (\) Slide Down  (h) Hammer On  (p) Pull Off  (b) Bend (r) Release (v) Vibrato

Stave 1:

E|---------------------------------------------------------------------------------------
B|---------------------------------------------------------------------------------------
G|---------------------------------------------------------------------------------------
D|--12--12--10--12-----------------------------12--12--10--12----------------------------
A|------------------12--11--10------8--------------------------12--11--10------8--8------
E|------------------------------10-----10--10------------------------------10--------10--

Stave 2:

E|------------------------------------------
B|------------------------------------------
G|--11--11--9---11------------------10------
D|--12--12--10--12--------------12------12--
A|------------------12--11--10--------------
E|------------------------------------------

Stave 3:

E|-----------------------------------------
B|-----------------------------------------
G|--12--12--10--12-------------------------
D|--12--12--10--12--12--11--10------8------
A|--10--10--8---10--------------10-----10--
E|-----------------------------------------

Stave 4:

E|--------------------------------------------------------------------------------------------
B|--2--2--2--------2--2--2--------2--2--2--------2--2--2--2--2--2--2--2--2--2--2--2--2--2--2--
G|--2--2--2--5-----2--2--2--5-----2--2--2--5-----2--2--2--2--2--2--2--2--2--2--2--2--2--2--2--
D|--2--2--2--5--5--2--2--2--5--5--2--2--2--5--5--2--2--2--2--2--2--2--2--2--2--2--2--2--2--2--
A|-----------3--5-----------3--5-----------3--5-----------------------------------------------
E|--------------3--------------3--------------3-----------------------------------------------

Stave 5:

E|--
B|--
G|--
D|--
A|--
E|--

http://www.guitartabcreator.com
Guitar Tab Creator is intended to store guitar tab created through the tool. It currently does not support in-line text editing. Any text you place in here will be lost. If you need to comment on your tab, please use the "Tab Notes" section located below.