Sound will begin in 5 seconds

not finished

01234567891011121314151617181920212223
E
B
G
D
A
E
B
0 1 2 3 4 5 6 7 8 9 10 11 12 13 14 15 16 17 18 19 20 21 22 23
Top Courses in Music 160x600
(/) Slide Up  (\) Slide Down  (h) Hammer On  (p) Pull Off  (b) Bend (r) Release (v) Vibrato

Stave 1:

G|--------------------------
D|--------------------------
A|--0--4--6--6--0--6--5--5--
E|--------------------------

Stave 2:

G|-----------------------------------------------------------------------------------------------
D|-----------------------------------------------------------------------------------------------
A|--------------------------3--3--3--3--3--3--3-----------------------------9--9--9--9--9--9--9--
E|--2--2--0--1--2--3--2--1-----------------------2--2--0--1--2--3--2--1--0-----------------------

Stave 3:

G|-----------------------------------------------------------------------------------------
D|-----------------------------------------------------------------------------------------
A|-----------------------------3--3--3--3--3--3--3--8--8--8--8--8--8--8--7--7--7--7--7--7--
E|--2--2--0--2--1--2--4--2--1--------------------------------------------------------------

http://www.guitartabcreator.com
Guitar Tab Creator is intended to store guitar tab created through the tool. It currently does not support in-line text editing. Any text you place in here will be lost. If you need to comment on your tab, please use the "Tab Notes" section located below.