Sound will begin in 5 seconds

Autumn Leaves arpegios

01234567891011121314151617181920212223
E
B
G
D
A
E
B
0 1 2 3 4 5 6 7 8 9 10 11 12 13 14 15 16 17 18 19 20 21 22 23
Top Courses in Music 160x600
(/) Slide Up  (\) Slide Down  (h) Hammer On  (p) Pull Off  (b) Bend (r) Release (v) Vibrato

Stave 1:

E|-----------------------------------
B|----------------------------8--10--
G|-------------------------9---------
D|------------------7--10------------
A|-----------7--10-------------------
E|-----5--8--------------------------

Stave 2:

E|------------------------8--10--
B|-----------------7--10---------
G|-----------5--7----------------
D|--------7----------------------
A|--5--9-------------------------
E|-------------------------------

Stave 3:

E|-----------------------2--3--
B|--------------------3--------
G|-----------------4-----------
D|-----------4--5--------------
A|-----2--5--------------------
E|--3--------------------------

Stave 4:

E|-----------------------7--8--
B|-----------------5--8--------
G|-----------4--5--------------
D|--------5--------------------
A|-----7-----------------------
E|--8--------------------------

Stave 5:

E|-----------------------------
B|-----------------------5--7--
G|--------------------5--------
D|--------------4--7-----------
A|--------3--7-----------------
E|--2--5-----------------------

Stave 6:

E|--
B|--
G|--
D|--
A|--
E|--

Stave 7:

E|--------------------7--10--12--
B|--------------5--8-------------
G|--------4--7-------------------
D|-----5-------------------------
A|--7----------------------------
E|-------------------------------

Stave 8:

E|--
B|--
G|--
D|--
A|--
E|--

Stave 9:

E|-------------------------9--11--
B|------------------8--11---------
G|------------6--8----------------
D|---------8----------------------
A|--6--10-------------------------
E|--------------------------------

Stave 10:

E|--------------------5--8--10--
B|-----------------6------------
G|-----------5--7---------------
D|--------7---------------------
A|--5--8------------------------
E|------------------------------

Stave 11:

E|-----------------------7--9--
B|-----------------6--9--------
G|--------------6--------------
D|--------6--9-----------------
A|-----8-----------------------
E|--9--------------------------

http://www.guitartabcreator.com
Guitar Tab Creator is intended to store guitar tab created through the tool. It currently does not support in-line text editing. Any text you place in here will be lost. If you need to comment on your tab, please use the "Tab Notes" section located below.