Sound will begin in 5 seconds

belief solo

Chords
01234567891011121314151617181920212223
E
B
G
D
A
E
B
0 1 2 3 4 5 6 7 8 9 10 11 12 13 14 15 16 17 18 19 20 21 22 23
Top Courses in Music 160x600
(/) Slide Up  (\) Slide Down  (h) Hammer On  (p) Pull Off  (b) Bend (r) Release (v) Vibrato

Stave 1:

E|----------------------------------------------------------------------------------------------------------
B|--12--12--12------------------------------------------------------------------------------12------12--15--
G|--12--12--12--9/11\9--------7--9/10\9--7--------------------7/8\7-----7--9--9--9--11--14------14----------
D|----------------------7--9----------------7--9--------7--9---------9--------------------------------------
A|------------------------------------------------7--9------------------------------------------------------
E|----------------------------------------------------------------------------------------------------------

Stave 2:

E|----------14--12------12--14--12--------------12--14--15--17------------------------------
B|--12--15----------15--------------12--14--15------------------15--------------------------
G|------------------------------------------------------------------14----------------------
D|----------------------------------------------------------------------17--16--------------
A|------------------------------------------------------------------------------17--16------
E|--------------------------------------------------------------------------------------17--

http://www.guitartabcreator.com
Guitar Tab Creator is intended to store guitar tab created through the tool. It currently does not support in-line text editing. Any text you place in here will be lost. If you need to comment on your tab, please use the "Tab Notes" section located below.