Sound will begin in 5 seconds

Growing Pains Solo

01234567891011121314151617181920212223
E
B
G
D
A
E
B
0 1 2 3 4 5 6 7 8 9 10 11 12 13 14 15 16 17 18 19 20 21 22 23
Top Courses in Music 160x600
(/) Slide Up  (\) Slide Down  (h) Hammer On  (p) Pull Off  (b) Bend (r) Release (v) Vibrato

Stave 1:

E|-10p11-10------8-8-----------------------------------------------11-10-8-6-8---------------------------
B|----------11-8-----8h9-8-----------------8-9-8--------------11-8-------------9-8-6-6---6-8-6---6-------
G|-------------------------10-10-8-10-8-10-------10-8----8h10--------------------------8-------8---8-8-8-
D|----------------------------------------------------10-------------------------------------------------
A|-------------------------------------------------------------------------------------------------------
E|-------------------------------------------------------------------------------------------------------

Stave 2:

E|-16-15-13----13h15-13----13\11-------------------------------15------------------------------------------
B|----------16----------16-------11h13-15p16-13----13-15-16-18---------------------------------8-----------
G|----------------------------------------------15----------------12p13-10\8-8-12p13-10\8-8h10---7-8-10-12-
D|---------------------------------------------------------------------------------------------------------
A|---------------------------------------------------------------------------------------------------------
E|---------------------------------------------------------------------------------------------------------

Stave 3:

E|-------------------------------
B|-11-8------11-8------11-8------
G|------10-8------10-8------10-8-
D|-------------------------------
A|-------------------------------
E|-------------------------------

http://www.guitartabcreator.com
Guitar Tab Creator is intended to store guitar tab created through the tool. It currently does not support in-line text editing. Any text you place in here will be lost. If you need to comment on your tab, please use the "Tab Notes" section located below.