Sound will begin in 5 seconds

por que te amo

01234567891011121314151617181920212223
E
B
G
D
A
E
B
0 1 2 3 4 5 6 7 8 9 10 11 12 13 14 15 16 17 18 19 20 21 22 23
Song Science #1: How Pros Use 6 Chords to Write Hit Songs
(/) Slide Up  (\) Slide Down  (h) Hammer On  (p) Pull Off  (b) Bend (r) Release (v) Vibrato

Stave 1:

E|-----------------------------------------------------
B|-----------------------------------------------------
G|--------------6--------6-----6-----9--6-----6-----6--
D|-----6--7--9-----7--7-----7-----7--------7-----7-----
A|--9--------------------------------------------------
E|-----------------------------------------------------

Stave 2:

E|--------------------------------------
B|--------------------------------------
G|--------4-----4-----7--4-----4-----4--
D|--6--6-----6-----6--------6-----6-----
A|--------------------------------------
E|--------------------------------------

Stave 3:

E|--------------------------------------
B|--------------------------------------
G|--------2-----2-----6--2-----2-----2--
D|--4--4-----4-----4--------4-----4-----
A|--------------------------------------
E|--------------------------------------

Stave 4:

E|--------------------------------------------------
B|--------------------------------------------------
G|--------------------------------------------------
D|--------4-----4-----7--4-----4-----4--5-----6-----
A|--5--5-----5-----5--------5-----5--------6-----7--
E|--------------------------------------------------

Stave 5:

E|--------------------------------------
B|-----------------------------7--8--9--
G|-----------------6--7--8--9-----------
D|--------6--7--9-----------------------
A|--7--9--------------------------------
E|--------------------------------------

Stave 6:

E|----------9------9------12--9------9------9--------7-----7-----10--7-----7-----7--
B|--10--10-----10-----10---------10-----10-----9--9-----9-----9---------9-----9-----
G|----------------------------------------------------------------------------------
D|----------------------------------------------------------------------------------
A|----------------------------------------------------------------------------------
E|----------------------------------------------------------------------------------

Stave 7:

E|--------5-----5-----9--5-----5-----5--------2-----2-----5--2-----2-----2-----3-----4--
B|--7--7-----7-----7--------7-----7-----3--3-----3-----3--------3-----3-----4-----5-----
G|--------------------------------------------------------------------------------------
D|--------------------------------------------------------------------------------------
A|--------------------------------------------------------------------------------------
E|--------------------------------------------------------------------------------------

Stave 8:

E|--------4--5--7--9--12--11--9---------------------
B|--5--7-------------------------12--10--9--12--10--
G|--------------------------------------------------
D|--------------------------------------------------
A|--------------------------------------------------
E|--------------------------------------------------

http://www.guitartabcreator.com
Guitar Tab Creator is intended to store guitar tab created through the tool. It currently does not support in-line text editing. Any text you place in here will be lost. If you need to comment on your tab, please use the "Tab Notes" section located below.