Sound will begin in 5 seconds

Blues Scales and Shapes

01234567891011121314151617181920212223
E
B
G
D
A
E
B
0 1 2 3 4 5 6 7 8 9 10 11 12 13 14 15 16 17 18 19 20 21 22 23
Top Courses in Music 160x600
(/) Slide Up  (\) Slide Down  (h) Hammer On  (p) Pull Off  (b) Bend (r) Release (v) Vibrato

Stave 1:

E|--------------------------------------4--
B|--------------------------------4--7-----
G|-----------------------4--6--7-----------
D|-----------------4--6--------------------
A|--------4--5--6--------------------------
E|--4--7-----------------------------------

Stave 2:

E|---------------------------------------7--
B|---------------------------------7--9-----
G|------------------------6--7--8-----------
D|------------------6--9--------------------
A|------------6--9--------------------------
E|--7--9--10--------------------------------

Stave 3:

E|---------------------------------------------9--
B|--------------------------------------9--12-----
G|-------------------------------8--11------------
D|--------------------9--11--12-------------------
A|-------------9--11------------------------------
E|--9--10--11-------------------------------------

Stave 4:

E|--------------------------------------------------11--
B|--------------------------------------12--14--15------
G|------------------------------11--13------------------
D|------------------11--12--13--------------------------
A|----------11--14--------------------------------------
E|--11--14----------------------------------------------

Stave 5:

E|--------------------------------------------------14--
B|--------------------------------------14--15--16------
G|------------------------------13--16------------------
D|----------------------13--16--------------------------
A|----------14--16--17----------------------------------
E|--14--16----------------------------------------------

http://www.guitartabcreator.com
Guitar Tab Creator is intended to store guitar tab created through the tool. It currently does not support in-line text editing. Any text you place in here will be lost. If you need to comment on your tab, please use the "Tab Notes" section located below.