Sound will begin in 5 seconds

NEW Bonus Creatures Update

Chords
01234567891011121314151617181920212223
E
B
G
D
A
E
B
0 1 2 3 4 5 6 7 8 9 10 11 12 13 14 15 16 17 18 19 20 21 22 23
Song Science #1: How Pros Use 6 Chords to Write Hit Songs
(/) Slide Up  (\) Slide Down  (h) Hammer On  (p) Pull Off  (b) Bend (r) Release (v) Vibrato

Stave 1:

G|------------------------------------
D|-----9--10------------------10--11--
A|--7---------9-----8-----11----------
E|------------------------------------

Stave 2:

G|-----------------------------------
D|-----9--10-----9--10---------------
A|--7---------9---------8-----11-----
E|-----------------------------------

Stave 3:

G|-----------------6--------------------6--------------------6-----11-----------
D|-----------------6--------------------6--------------------6-----11-----------
A|-----------------------------------------------------------------11-----------
E|--2--0--0--2--0--------5--0--0--5--0--------2--0--0--2--0------------2--2--1--

Stave 4:

G|--11--------
D|--11--------
A|--11--------
E|------0--0--

Stave 5:

G|--12--12--12-------------12--------------------------------------------------
D|--10--11--11---------11---------8-----8-----8-----8-----7-----7-----7-----7--
A|----------11-----11----------8-----8-----8-----8-----7-----7-----7-----7-----
E|-----------------------------------------------------------------------------

Stave 6:

G|--10--10--10-----------10--------9-----------------8-----------
D|--9---8---8---------8---------7-----7-----7-----6-----6-----6--
A|----------9------9---------8-----------8-----7-----------7-----
E|---------------------------------------------------------------

Stave 7:

G|-----------------------------------
D|-----------------------------------
A|-----------------------------------
E|--0--2--1-----0--2--1-----0--2--1--

Stave 8:

G|--------------------------------------------------------------------------
D|--------------------------------------------------------------------------
A|--7--7--0--7--0-----9--9--0--9--0-----8--8--0--8--0-----11--11--0--11--0--
E|--------------------------------------------------------------------------

Stave 9:

G|----------------------------------------------------------11-----------
D|----------------------------------------------------------11-----------
A|--7--7--0--9-----8-----11-----7--7--0--9-----8-----11-----11-----------
E|--------------------------------------------------------------2--2--1--

http://www.guitartabcreator.com
Guitar Tab Creator is intended to store guitar tab created through the tool. It currently does not support in-line text editing. Any text you place in here will be lost. If you need to comment on your tab, please use the "Tab Notes" section located below.